Song name
# A B C D E F G H I J K L M N O P Q R S T U V W X Y Z

Green Day - The Judges Daughter tab

-------------------------------------------------------------------------------
			     THE JUDGES DAUGHTER - Green Day
-------------------------------------------------------------------------------
Tabbed by: Thedboy

Tuning: Down a quarter of a step.

I am submitting this tab because it is slightly different to any other ones on this site.

                                                                 
e------3------3--------------------------------------------33----33---3-6p3-----------|
B----3------3----------------------------------------------33----33-3-------6p3-6b-6-3|
G-5b-----5b-----5b--3-2---3-2--------------3-0---3-5-3-5b-----5b----------------------|
D-----------------------3-----3-----35555------5--------------------------------------|
A-------------------------------355---------------------------------------------------|
E-------------------------------------------------------------------------------------|


e-------------------------------------------------------------------------------------|
B--------------------------------------15-----15-----15-----15-15---------------------|
G-5b-3-0-3v-5p3-5p3------------5-17p15----17b----17b----17b-------17b-17b-17p15----15-|
D-------------------543---------------------------------------------------------17----|
A-----------------------543/1---------------------------------------------------------|
E-------------------------------------------------------------------------------------|


e--------15---------15-16-16b-----------------3------3-------------------------|
B-----15----18b-18b-------------------------3------3---------------------------|
G-17b--------------------------3-5p3---3-5b-----5b-----5b-5p3---333-000-000-0~-|
D------------------------------------5------------------------5-----555-333-5~-|
A------------------------------------------------------------------------------|
E------------------------------------------------------------------------------|

There you go. I find this quite tricky because different parts are played at different speeds
but keep going, you will get it. Hope this helps.
========================================================================================
Tap to rate this tab
 
# A B C D E F G H I J K L M N O P Q R S T U V W X Y Z