Song name
# A B C D E F G H I J K L M N O P Q R S T U V W X Y Z

Green Day - Rest tab

Im pretty confident that this is the correct way to play rest, please leave
any comments or corrections on the message board.
Intro
           F5        G5                                    F5
|----------------||--------------------------|----------------------------||
|----------------||o-------------------------|---------------------------o||
|------------0---||--------0-----------0-----|-------0-------0-----0------||
|----------------||----------0-----------0---|---------0-------3----------||
|--------------3-||o---5-------5---5-------5-|---5-------------------3---o||
|----------1-----||--3---3-------3---3-------|-3---3-----3-1-----1--------||


 Verses 1
  G5                                                  F5
|-------------------------|-------------------------|--------------------------|
|-------------------------|-------------------------|--------------------------|
|-------0-------0-----0---|-------0-----0-----0-----|-------0-----0-------0----|
|---------0-------0-----0-|---------0-----0-----0---|---0-----0-----0-------0--|
|---5-------5-------------|---5-------5-------------|-----------------3-3------|
|-3---3-------3-----3-----|-3---3-----------3-----3-|-1---1-----1--------------|


  G5
|-------------------------|-------------------------|--------------------------|
|-------------------------|-------------------------|--------------------------|
|-------0-----------0-----|-------0-----------0-----|-------0-----------0------|
|---------0-----------0---|---------0-----------0---|---------0-----------0----|
|---5-------5---5-------5-|---5-------5---5-------5-|---5-------5---5-------5--|
|-3---3-------3---3-------|-3---3-------3---3-------|-3---3-------3---3--------|


  F5
|-------------------------|
|-------------------------|
|-------0-----------0-----|
|---------0-----------0---|
|---3-------3---3-------3-|
|-1---1-------1---1-------|


Chorus
  G5                         Bb5         A5    F5
|-------------------------||--------------------------|
|-------------------------||--------------------------|
|-------0---------0-------||-------0---------0---0----|
|---------0-----------0---||---3-----3-3---2-------3--|
|---5-------5---5-------0-||-1---1-------0------------|
|-3---3-------3-----3-----||-------------------1------|

  G5                                    F5
|-------------------------|-------------------------|
|-------------------------|-------------------------|
|-------0-----------0-----|---0-----0-----0-----0---|
|---------0-----------0---|-----0-----0-----0-----0-|
|---5-------5---5-------5-|-------------------------|
|-3---3-------3---3-------|-3-----3-----1-----1-----|


  G5
|--------------|---------------------|
|--------------|---------------------|
|--------------|---------------------|
|--------------|---------------------|
|-5------------|--5--------5---------|
|-3------------|--3--------3----3----|


Verse 2
  G5                                                  F5
|-------------------------|-------------------------|--------------------------|
|-------------------------|-------------------------|--------------------------|
|-------------------------|-------------------0-----|-------0-----------0------|
|-------------------------|---------------------0---|---------0-----------0----|
|-5--5--5-----5-----------|-5-5-5-5-5-5---5---------|---3-------3---3-------3--|
|-3---------------3--3----|-3-3-3-3-3-3-3---3-----3-|-1---1-------1---1--------|


  G5
|-------------------------|---------------------|-----------------|
|-------------------------|---------------------|-----------------|
|-------0-----------------|------------------0--|------------0----|
|---------0---------------|---------------------|----------0------|
|---5-------5---5---5---5-|-5-------5-----5-----|-5----5----------|
|-3---3-------3---3---3---|-3-------3-----3-----|-3----3----------|


  F5
|-------------------------|
|-------------------------|
|-------0-----------0-----|
|---------0-----------0---|
|---3-------3---3-------3-|
|-1---1-------1---1-------|


Chorus
  G5                         Bb5         A5
|-------------------------||--------------------------|
|-------------------------||--------------------------|
|-------0---------0-------||-------0---------0---0----|
|---------0-----------0---||---3-----3-3---2-------3--|
|---5-------5---5-------0-||-1---1-------0------------|
|-3---3-------3-----3-----||-------------------1------|


  G5
|-------------------------|
|-------------------------|
|-------0-----------0-----|
|---------0-----------0---|
|---5-------5---5-------5-|
|-3---3-------3---3-------|

Verse 3
  G5                                                  F5
|-------------------------|-------------------------|--------------------------|
|-------------------------|-------------------------|--------------------------|
|-------0-------0-----0---|-------0-----0-----0-----|-------0-----0-------0----|
|---------0-------0-----0-|---------0-----0-----0---|---0-----0-----0-------0--|
|---5-------5-------------|---5-------5-------------|-----------------3-3------|
|-3---3-------3-----3-----|-3---3-----------3-----3-|-1---1-----1--------------|


  G5
|-------------------------|-------------------------|--------------------------|
|-------------------------|-------------------------|--------------------------|
|-------0-----------0-----|-------0-----------0-----|-------0-----------0------|
|---------0-----------0---|---------0-----------0---|---------0-----------0----|
|---5-------5---5-------5-|---5-------5---5-------5-|---5-------5---5-------5--|
|-3---3-------3---3-------|-3---3-------3---3-------|-3---3-------3---3--------|


  F5
|-------------------------|
|-------------------------|
|-------0-----------0-----|
|---------0-----------0---|
|---3-------3---3-------3-|
|-1---1-------1---1-------|


Interlude
                            Bb5             A5
|-------------------------|--------------------------|
|-------------------------|--------------------------|
|-------0-----------0-----|-------0-----------0------|
|---------0-----------0---|---3-----3-----------2----|
|---5-------5---5-------0-|-1---1-----1-0-0-0-----0--|
|-3---3-------3---3-------|--------------------------|


  Bb5         A5            Bb5         C5            D5
|-------------------------|-------------------------|--------------------------|
|-------------------------|-------------------------|--------------------------|
|-------0-----------0-----|-------0-----------0-----|-------0-----------0------|
|---3-----3-----2-----2---|---3-----3-----5-5---5---|---7-----7---7---7---7----|
|-1---1-----1-0---0-----0-|-1---1-----1-3-3-------3-|-5---5-----5---5-------5--|
|-------------------------|-------------------------|--------------------------|

  D5          F5             G5
|-------------------------||-------------------------|
|-------------------------||-------------------------|
|-------0-------0-----0---||---0-----0-------0-------|
|-7-------7-------0-----0-||-----0-----0---0---------|
|---5-5-------------------||---------------------5-0-|
|-----------0-1-----1-----||-3-----3-----3-----3-----|


  Bb5         A5    F5      G5
|-------------------------|--------------|--------|
|-------------------------|--------------|--------|
|-------0-------0-----0---|--------------|--------|
|---3-----3-------2-----0-|--------------|--------|
|-1---1-----1-0-----------|-5------------|--5-----|
|-------------------1-----|-3------------|--3-----|
Tap to rate this tab
 
# A B C D E F G H I J K L M N O P Q R S T U V W X Y Z