Song name
# A B C D E F G H I J K L M N O P Q R S T U V W X Y Z

Green Day - Letterbomb tab

This is one of my favorite Green Day songs ;) I'm sure these are the right tabs, i even
the intro with a tuner next to the stereo for the intro, so if u think its 9 and 7 frets
the power chord (im talking about the intro), check it yourself, you'll see :). the two 
im not sure about i've pointed out with ^ marks in the tabs. one of them is in the
and the other one in the chorus. if you have any suggestions on those please email me. 
enjoy!


e|-----------------------------------------------------------|
B|-----------------------------------------------------------|
G|(14-14-14-14-14-14-14-14-14-14-14-14)----------------------|
D|-14-14-14-14-14-14-14-14-14-14-14-14-----------------------| (*3)
A|-12-12-12-12-12-12-12-12-12-12-12-12-----------------------|
E|-----------------------------------------------------------|

e|-----------------------------------------------------------|
B|-----------------------------------------------------------|
G|(13-13-13-13-13-13-13-13-13-13-13-13)----------------------|
D|-13-13-13-13-13-13-13-13-13-13-13-13-----------------------|
A|-11-11-11-11-11-11-11-11-11-11-11-11-----------------------|
E|-----------------------------------------------------------|

e|-----------------------------------------------------------|
B|-----------------------------------------------------------|
G|(12-12-12-12-12-12-12-12-12-12-12-12)----------------------| (*2)
D|-14-14-14-14-14-14-14-14-14-14-14-14-----------------------|
A|-14-14-14-14-14-14-14-14-14-14-14-14-----------------------|
E|-----------------------------------------------------------|

e|------------------|
B|------------------|
G|----------6-------|
D|--2---6---6---7---|
A|--2---6---4---7---|
E|--0---4-------5---|

(Where have all the bastards gone?)

e|---------------------------------------|---------|
B|---------------------------------------|---------|
G|--------------111-22-11----6---6-------|---------|
D|--2--7--4--7--222-22-22--6-6-6-6--7-4--|-9-7/8-9-|
A|--2--7--4--7--222-22-22--6-4-6-4--7-4--|-9-7/8-9-|
E|--0--5--2--5--000-00-00—-4---4----5-2--|-7-5/6-7-|
                ^^^^^^^^^
(Where have all the riots gone?)

e|---------------------------------------|--------------------------|
B|---------------------------------------|--------------------------|
G|--------------111-22-11----6---6-------|--------------------------|
D|--2--7--4--7--222-22-22--6-6-6-6--7-4--|-9-7/8-999-7/8-999-7/8—999|
A|--2--7--4--7--222-22-22--6-4-6-4--7-4--|-9-7/8-999-7/8-999-7/8—999|
E|--0--5--2--5--000-00-00--4---4----5-2--|-7-5/6-777-5/6-777-5/6—777|
                ^^^^^^^^^
(The town bishop’s and extortionist...)

e|----------------------------------------------------------|
B|----------------------------------------------------------|
G|----------------------------------------------------------|
D|--7777777-6/7-7777777--6/9-9999999--7/9-9999-7/9-99-7/9---|
A|--7777777-6/7-7777777--6/9-9999999--7/9-9999-7/9-99-7/9---|
E|--5555555-4/5-5555555--4/7-7777777--5/7-7777-5/7-77-5/7---|

(It's not over till you're underground...)

e|---------------------------------------------------------|
B|---------------------------------------------------------|
G|--9----------9----------9-------------9------------------|
D|--9--9--7----9--9--7----9--9--7----8--9--9--7----4---7---|
A|--7--9--7----7--9--7----7--9--7----8--7--9--7----4---7---|
E|-----7--5-------7--5-------7--5----6-----7--5----2---5---|
                                     ^^
                           (Where will all the martyrs go...?)
Guitar 1
e|-----------------------------------------------------------|
B|-----------------------------------------------------------|
G|(14-14-14-14-14-14-14-14-14-14-14-14)----------------------|
D|-14-14-14-14-14-14-14-14-14-14-14-14-----------------------|
A|-12-12-12-12-12-12-12-12-12-12-12-12-----------------------|
E|-----------------------------------------------------------|

Guitar 2
e|-----------------------------------------------------------|
B|-----------------------------------9-----9-----9-----------|
G|--------------------------------------9-----9----9---------|
D|-----------------------------------------------------------|
A|-----------------------------------------------------------|
E|-----------------------------------------------------------|

Guitar 1
e|-----------------------------------------------------|
B|-----------------------------------------------------|
G|(13-13-13-13-13-13-13-13-13-13-13-13)-(14-14-14...)--|
D|-13-13-13-13-13-13-13-13-13-13-13-13---14-14-14...---|
A|-11-11-11-11-11-11-11-11-11-11-11-11---12-12-12...---|
E|-----------------------------------------------------|

Guitar 2
e|-----------------------------------------------------------|
B|-7-----7-----7----9-----9-----9----10----10----10----------|
G|----8-----8----8-----9-----9----9-----9-----9----9---------|
D|-----------------------------------------------------------|
A|-----------------------------------------------------------|
E|-----------------------------------------------------------|

e|---------------------|
B|---------------------|
G|--------6------------|
D|--2--6--6--7---------|
A|--2--6--4--7---------|
E|--0--4-----5---------|

Guitar 1                            (And don't look back...)
e|-------------------------------------------------------------------|
B|-------------------------------------------------------------------|
G|------------------------(9999-8888-4444-8888-9999-8888-44444444)---|
D|--2------------6---------7777-6666-2222-6666-7777-6666-22222222 ---|
A|--2------------6---------7777-6666-2222-6666-7777-6666-22222222----|
E|--0------------4---------------------------------------------------|

Guitar 2
e|--------------------------------------------------------------------|
B|--------------------------------------------------------------------|
G|-9---9---9---9---9--8-88-8-9-88-8-6-4-------------------------------|
D|---9---9---9---9----------------------------------------------------|
A|--------------------------------------------------------------------|
E|--------------------------------------------------------------------|

(You're not the Jesus of Suburbia...)
e|--------------------------------------------------------------------|
B|--------------------------------------------------------------------|
G|--------------------------------------------------------------------|
D|-9-7/9-9999999--7/9-9999999--6/7-7777777--6/9-9999999--7/9-9999-7/9-|
A|-9-7/9-9999999--7/9-9999999--6/7-7777777--6/9-9999999--7/9-9999-7/9-|
E|-7-5/7-7777777--5/7-7777777--4/5-5555555--4/7-7777777--5/7-7777-5/7-|

(It's not over ‘till you're underground...)
e|----------------------------------------------------------------|
B|----------------------------------------------------------------|
G|--9--------------9--------------9----------10-----9-------------|
D|--9---9---7------9---9---7------9---9---7--10-----9---9---7-----|
A|--7---9---7------7---9---7------7---9---7--8------7---9---7-----|
E|------7---5----------7---5----------7---5--8----------7---5-----|
                                             ^^^^
(She said I can't take this place, I'm leaving it behind...)
e|------------------------------------|
B|------------------------------------|
G|----------6-----------------6-------|
D|--2---6---6---7-----2---6---6---7---|
A|--2---6---4---7-----2---6---4---7---|
E|--0---4-------5-----0---4-------5---|

Guitar 1
e|------------------------------------------------------------|
B|------------------------------------------------------------|
G|------------------------------------------------------------|
D|--2------22-------2--------22------2------22--------2-------|
A|--2------22-------2--------22------2------22--------2-------|
E|--0------00-------0--------00------0------00--------0-------|

e|-----------------------------------------------------------|
B|-----------------------------------------------------------|
G|(14-14-14-14-14-14-14-14-14-14-14-14)----------------------|
D|-14-14-14-14-14-14-14-14-14-14-14-14-----------------------| (*3)
A|-12-12-12-12-12-12-12-12-12-12-12-12-----------------------|
E|-----------------------------------------------------------|

Song Order:

-Intro (I'm not sure what to call this, please email me if you have suggestions, it's
the girl sings "nobody likes you...")
-Intro (Now this is the one where it starts with guitar)
-Pre-verse
-Verse (*2)
-Pre-chorus
-Chorus
-Interlude
-Pre-solo (sort of like pre-verse... hell i dont know what to call these :))
-Solo
-Pre-Chorus 2
-Chorus
-Outro

Lyrics:

Nobody likes you...
Everyone left you...
They're all out without you...
Having fun...

Where have all the bastards gone?
The underbelly stacks up ten high
The dummy failed the crash test
Collecting unemployment checks
Like a flunkie along for the ride

Where have all the riots gone
As the city's motto gets pulverized?
What's in love is now in debt
On your birth certificate
So strike the fucking match to light this fuse!

The town bishop is an extortionist
And he don't even know that you exist
Standing still when it's do or die
You better run for your fucking life

It's not over 'till you're underground
It's not over before it's too late
This city's burnin'
It's not my burden
It's not over before it's too late

There's nothing left to analyze

Where will all the martyrs go when the virus cures itself?
And where will we all go when it's too late?

And don't look back

You're not the Jesus of Suburbia
The St. Jimmy is a figment of
Your father's rage and your mother's love
Made me the idiot America

It's not over 'till you're underground
It's not over before it's too late
This city's burnin'
It's not my burden
It's not over before it's too late

She said I can't take this place
I'm leaving it behind

Well she said I can't take this town
I'm leaving you tonight
Tap to rate this tab
# A B C D E F G H I J K L M N O P Q R S T U V W X Y Z