Guitaretab - guitar tabs
Song name
# A B C D E F G H I J K L M N O P Q R S T U V W X Y Z

Green Day - Shes A Rebel tab

----------------------------------------------------------------------------
			     SHE'S A REBEL - Green Day
----------------------------------------------------------------------------
Tabbed by: Anderson4292
Email: s4m_4nd3r5on@hotmail.co.uk

Tuning:

<>

e|-------------------------------------------------------------------------|
B|-------------------------------------------------------------------------|
G|-------------------------------------------------------------7--7--------|
D|----5--5--x--5--5--5--5--5--x--5--5--5--5--5--x--5--5--5--5--7--7--------|
A|----5--5--x--5--5--5--5--5--x--5--5--5--5--5--x--5--5--5--5--5--5--------|
E|----3--3--x--3--3--3--3--3--x--3--3--3--3--3--x--3--3--3--3--------------|

e|-------------------------------------------------------------------------|
B|-------------------------------------------------------------------------|
G|----5--5--5--x--------------------------------------------------7--7-----|
D|----5--5--5--x--5--5--5--5--5--x--5--5--5--5--5--x--5--5--5--5--7--7-----|
A|----3--3--3--x--5--5--5--5--5--x--5--5--5--5--5--x--5--5--5--5--5--5-----|
E|----------------3--3--3--3--3--x--3--3--3--3--3--x--3--3--3--3-----------|

e|-------------------------------------------------------------------------|
B|-------------------------------------------------------------------------|
G|----5--5--5--x-----------------------------------------------------------|
D|----5--5--5--x-----------------------------------------------------------|
A|----3--3--3--x-----------------------------------------------------------|
E|-------------------------------------------------------------------------|

<>

e|-------------------------------------------------------------------------|
B|-------------------------------------------------------------------------|
G|-------------5--5--x-----------5--5--x-----------5--5--x--7--7--x--------|
D|----5--5--x--5--5--x--5--5--x--5--5--x--5--5--x--5--5--x--7--7--x--------|
A|----5--5--x--3--3--x--5--5--x--3--3--x--5--5--x--3--3--x--5--5--x--------|
E|----3--3--x-----------3--3--x-----------3--3--x--------------------------|

e|-------------------------------------------------------------------------|
B|-------------------------------------------------------------------------|
G|----5--5--5--x-----------5--5--5-----------5--5--5-----------5--5--5-----|
D|----5--5--5--x--5--5--5--5--5--5--5--5--5--5--5--5--5--5--5--5--5--5-----|
A|----3--3--3--x--5--5--5--3--3--3--5--5--5--3--3--3--5--5--5--3--3--3-----|
E|----------------3--3--3-----------3--3--3-----------3--3--3--------------|

e|-------------------------------------------------------------------------|
B|-------------------------------------------------------------------------|
G|--------------5--5--5--5--7----7--7--5--5--5--5-----5-----5-----5--7--5--|
D|--5--5--5--5--5--5--5--5--7----7--7--5--5--5--5--5--5--5--5--5--5--7--5--|
A|--5--5--5--5--3--3--3--3--5----5--5--3--3--3--3--5--3--5--3--5--3--5--3--|
E|--3--3--3--3-------------------------------------3-----3-----3-----------|

e|-------------------------------------------------------------------------|
B|-------------------------------------------------------------------------|
G|----7----7--7--5--5--5--5------------------------------------------------|
D|----7----7--7--5--5--5--5------------------------------------------------|
A|----5----5--5--3--3--3--3------------------------------------------------|
E|-------------------------------------------------------------------------|

<>

e|-------------------------------------------------------------------------|
B|----6--6--6--6--6--x-----------------------------------------------------|
G|----8--8--8--8--8--x-----------------------------5--5--5--5--5--5--------|
D|----8--8--8--8--8--x--9--9--9--9--9--9--9--9--x--5--5--5--5--5--5--------|
A|----7--7--7--7--7--x--9--9--9--9--9--9--9--9--x--3--3--3--3--3--3--------|
E|----------------------7--7--7--7--7--7--7--7--x--------------------------|

e|-------------------------------------------------------------------------|
B|-------------------------------------------------------------8--8--8--x--|
G|---5--5--5--5--5--5--5--5--x---------------------------------9--9--9--x--|
D|---5--5--5--5--5--5--5--5--x--10--10--10--10--x--9--9--9--9--9--9--9--x--|
A|---3--3--3--3--3--3--3--3--x--10--10--10--10--x--9--9--9--9--7--7--7--x--|
E|-------------------------------8---8---8---8--x--7--7--7--7--------------|

e|-------------------------------------------------------------------------|
B|---10--10--10--x--7--7--7--7---------------------------------------------|
G|---10--10--10--x--7--7--7--7-------------------------12--12--------------|
D|---10--10--10--x--7--7--7--7--9--9--7--7--10--10--x--12--12--12--12--x---|
A|----8---8---8--x--5--5--5--5--9--9--7--7--10--10--x--10--10--12--12--x---|
E|------------------------------7--7--5--5---8---8--x----------10--10--x---|
[ Tab from: http://www.guitaretab.com/g/green-day/52708.html ]
<>
e|-------------------------------------------------------------------------|
B|-------------------------------------------------------------------------|
G|------x-x-12-12-x-x-12-12-x-x-12-10-x-x-12-12-x-x-12-12-x-x-12-12--------|
D|------x-x-------x-x-------x-x-------x-x-------x-x-------x-x--------------|
A|------x-x-10-10-x-x-10-12-x-x-10-12-x-x-10-10-x-x-10-10-x-x-10-10--------|
E|-------------------------------------------------------------------------|

e|-------------------------------------------------------------------------|
B|-------------------------------------------------------------------------|
G|----11--11-11-11-12-14-12-11--11-11-11-12-14-12-11--11-11-11-11-12-14----|
D|-------------------------------------------------------------------------|
A|-----9---9--9--9-10-12-10--9---9--9--9-10-12-10--9---9--9--9--9-10-12----|
E|-------------------------------------------------------------------------|

..::Play CHORUS then into VERSE::..
<>

e|-------------------------------------------------------------------------|
B|-------------------------------------------------------------------------|
G|-------------------------------------------------------------7--7--------|
D|----5--5--x--5--5--5--5--5--x--5--5--5--5--5--x--5--5--5--5--7--7--------|
A|----5--5--x--5--5--5--5--5--x--5--5--5--5--5--x--5--5--5--5--5--5--------|
E|----3--3--x--3--3--3--3--3--x--3--3--3--3--3--x--3--3--3--3--------------|

e|-------------------------------------------------------------------------|
B|-------------------------------------------------------------------------|
G|----5--5--5--x--------------------------------------------------7--7-----|
D|----5--5--5--x--5--5--5--5--5--x--5--5--5--5--5--x--5--5--5--5--7--7-----|
A|----3--3--3--x--5--5--5--5--5--x--5--5--5--5--5--x--5--5--5--5--5--5-----|
E|----------------3--3--3--3--3--x--3--3--3--3--3--x--3--3--3--3-----------|

e|-------------------------------------------------------------------------|
B|-------------------------------------------------------------------------|
G|----5--5--5--x-----------------------------------------------------------|
D|----5--5--5--x-----------------------------------------------------------|
A|----3--3--3--x-----------------------------------------------------------|
E|-------------------------------------------------------------------------|

<>

e|-------------------------------------------------------------------------|
B|-------------------------------------------------------------------------|
G|-------------5--5--x-----------5--5--x-----------5--5--x--7--7--x--------|
D|----5--5--x--5--5--x--5--5--x--5--5--x--5--5--x--5--5--x--7--7--x--------|
A|----5--5--x--3--3--x--5--5--x--3--3--x--5--5--x--3--3--x--5--5--x--------|
E|----3--3--x-----------3--3--x-----------3--3--x--------------------------|

e|-------------------------------------------------------------------------|
B|-------------------------------------------------------------------------|
G|----5--5--5--x-----------5--5--5-----------5--5--5-----------5--5--5-----|
D|----5--5--5--x--5--5--5--5--5--5--5--5--5--5--5--5--5--5--5--5--5--5-----|
A|----3--3--3--x--5--5--5--3--3--3--5--5--5--3--3--3--5--5--5--3--3--3-----|
E|----------------3--3--3-----------3--3--3-----------3--3--3--------------|

e|-------------------------------------------------------------------------|
B|-------------------------------------------------------------------------|
G|--------------5--5--5--5--7----7--7--5--5--5--5-----5-----5-----5--7--5--|
D|--5--5--5--5--5--5--5--5--7----7--7--5--5--5--5--5--5--5--5--5--5--7--5--|
A|--5--5--5--5--3--3--3--3--5----5--5--3--3--3--3--5--3--5--3--5--3--5--3--|
E|--3--3--3--3-------------------------------------3-----3-----3-----------|

e|-------------------------------------------------------------------------|
B|-------------------------------------------------------------------------|
G|----7----7--7--5--5--5--5------------------------------------------------|
D|----7----7--7--5--5--5--5------------------------------------------------|
A|----5----5--5--3--3--3--3------------------------------------------------|
E|-------------------------------------------------------------------------|

<>

e|-------------------------------------------------------------------------|
B|-------------------------------------------------------------------------|
G|------x-x-12-12-x-x-12-12-x-x-12-10-x-x-12-12-x-x-12-12-x-x-12-12--------|
D|------x-x-------x-x-------x-x-------x-x-------x-x-------x-x--------------|
A|------x-x-10-10-x-x-10-12-x-x-10-12-x-x-10-10-x-x-10-10-x-x-10-10--------|
E|-------------------------------------------------------------------------|

e|-------------------------------------------------------------------------|
B|-------------------------------------------------------------------------|
G|----11--11-11-11-12-14-12-11--11-11-11-12-14-12-11--11-11-11-11-12-14----|
D|-------------------------------------------------------------------------|
A|-----9---9--9--9-10-12-10--9---9--9--9-10-12-10--9---9--9--9--9-10-12----|
E|-------------------------------------------------------------------------|

| /  slide up
| \  slide down
| h  hammer-on
| p  pull-off
| ~  vibrato
| +  harmonic
| x  Mute note
============================================================================
Related for Shes A Rebel tab
Advertisement will be closed in 10 seconds