Guitaretab - guitar tabs
Song name
# A B C D E F G H I J K L M N O P Q R S T U V W X Y Z

Green Day - Whatsername tab

Artist: Green Day
Single: Whatsername
Record: American Idiot (2004)

Tabbed By: guitar_player5
Email: noodleman5@msn.com

Tuning: Drop D

Gtr. 1 - Billie Joe Armstrong (Drop D)
Gtr. 2 - Jason White          (Standard)

Introduction: (Gtr. 1 w/ Distortion and Palm Muting)
E|-------------------------------------|
B|-------------------------------------|
G|-7777777777777777--4444444444444444--|
D|-7777777777777777--4444444444444444--|
A|-5555555555555555--2222222222222222--|
D|-------------------------------------|

E|-------------------------------------|
B|-------------------------------------|
G|-7777777777777777--4444444444444444--|
D|-7777777777777777--4444444444444444--|
A|-5555555555555555--2222222222222222--|
D|-------------------------------------|

Verse: (Gtr. 1 w/ Distortion and Palm Muting)
E|-------------------------------------|
B|-------------------------------------|
G|-7777777777777777--4444444444444444--|
D|-7777777777777777--4444444444444444--|
A|-5555555555555555--2222222222222222--|
D|-------------------------------------|

E|-------------------------------------|
B|-------------------------------------|
G|-7777777777777777--4444444444444444--|
D|-7777777777777777--4444444444444444--|
A|-5555555555555555--2222222222222222--|
D|-------------------------------------|

Chorus: (Gtr. 1 w/ Distortion and Palm Muting)
E|--------------------------------------------|
B|--------------------------------------------|
G|-----------77777777------------4444--2222---|
D|-55555555--77777777--44444444--4444--2222---|
A|-55555555--55555555--44444444--2222--0000---|
D|-55555555------------44444444---------------|

E|--------------------------------------------|
B|--------------------------------------------|
G|-----------77777777------------4444--2222---|
D|-55555555--77777777--44444444--4444--2222---|
A|-55555555--55555555--44444444--2222--0000---|
D|-55555555------------44444444---------------|

E|--------------------------------------------|
B|--------------------------------------------|
G|-----------77777777------------4444--2222---|
D|-55555555--77777777--44444444--4444--2222---|
A|-55555555--55555555--44444444--2222--0000---|
D|-55555555------------44444444---------------|

E|----------------------|
B|----------------------|
G|-----------22222222---|
D|-55555555--22222222---|
A|-55555555--00000000---|
D|-55555555-------------|

Instrumental: (Gtr. 1 w/ Distortion and Palm Muting)
E|-------------------------------------|
B|-------------------------------------|
G|-7777777777777777--4444444444444444--|
D|-7777777777777777--4444444444444444--|
A|-5555555555555555--2222222222222222--|
D|-------------------------------------|

(Gtr. 2 w/ Distortion)
E|-------------------------------------|
B|-3--------5/7----3----0----2----3----|
G|-------------------------------------|
D|-------------------------------------|
A|-------------------------------------|
E|-------------------------------------|

(Gtr. 1 w/ Distortion and Palm Muting)
E|-------------------------------------|
B|-------------------------------------|
G|-7777777777777777--4444444444444444--|
D|-7777777777777777--4444444444444444--|
A|-5555555555555555--2222222222222222--|
D|-------------------------------------|

(Gtr. 2 w/ Distortion)
E|-------------------------------------5----|
B|-3--------5/7----3----0----2----3----3----|
G|------------------------------------------|
D|------------------------------------------|
A|------------------------------------------|
E|------------------------------------------|

Verse: (Gtr. 1 w/ Distortion and Palm Muting)
E|-------------------------------------|
B|-------------------------------------|
G|-7777777777777777--4444444444444444--|
D|-7777777777777777--4444444444444444--|
A|-5555555555555555--2222222222222222--|
D|-------------------------------------|

(Gtr. 2 w/ Distortion)(Let All Chords Ring)
E|-2-----------------------------------|
B|-3-----------------------------------|
G|-2-----------------4-----------------|
D|-0-----------------4-----------------|
A|-------------------2-----------------|
E|-------------------------------------|

(Gtr. 1 w/ Distortion and Palm Muting)
E|-------------------------------------|
B|-------------------------------------|
G|-7777777777777777--4444444444444444--|
D|-7777777777777777--4444444444444444--|
A|-5555555555555555--2222222222222222--|
D|-------------------------------------|

(Gtr. 2 w/ Distortion)(Let All Chords Ring)
E|-2-----------------------------------|
B|-3-----------------------------------|
G|-2-----------------4-----------------|
D|-0-----------------4-----------------|
A|-------------------2-----------------|
E|-------------------------------------|

Chorus: (Gtr. 1 w/ Distortion and Palm Muting)
E|--------------------------------------------|
B|--------------------------------------------|
G|-----------77777777------------4444--2222---|
D|-55555555--77777777--44444444--4444--2222---|
A|-55555555--55555555--44444444--2222--0000---|
D|-55555555------------44444444---------------|

(Gtr. 2 w/ Distortion)(Let All Chords Ring)
E|-3---------2--------------------------------|
B|-3---------3-------------------------2------|
G|-0---------2---------3---------4-----2------|
D|-0---------0---------4---------4-----2------|
A|-2-------------------4---------2-----0------|
E|-3-------------------2----------------------|

(Gtr. 1 w/ Distortion and Palm Muting)
E|--------------------------------------------|
B|--------------------------------------------|
G|-----------77777777------------4444--2222---|
D|-55555555--77777777--44444444--4444--2222---|
A|-55555555--55555555--44444444--2222--0000---|
D|-55555555------------44444444---------------|

(Gtr. 2 w/ Distortion)(Let All Chords Ring)
E|-3---------2--------------------------------|
B|-3---------3-------------------------2------|
G|-0---------2---------3---------4-----2------|
D|-0---------0---------4---------4-----2------|
A|-2-------------------4---------2-----0------|
E|-3-------------------2----------------------|

(Gtr. 1 w/ Distortion and Palm Muting)
E|--------------------------------------------|
B|--------------------------------------------|
G|-----------77777777------------4444--2222---|
D|-55555555--77777777--44444444--4444--2222---|
A|-55555555--55555555--44444444--2222--0000---|
D|-55555555------------44444444---------------|

(Gtr. 2 w/ Distortion)(Let All Chords Ring)
E|-3---------2--------------------------------|
B|-3---------3-------------------------2------|
G|-0---------2---------3---------4-----2------|
D|-0---------0---------4---------4-----2------|
A|-2-------------------4---------2-----0------|
E|-3-------------------2----------------------|
[ Tab from: http://www.guitaretab.com/g/green-day/52711.html ]
(Gtr. 1 w/ Distortion and Palm Muting)
E|----------------------|
B|----------------------|
G|-----------22222222---|
D|-55555555--22222222---|
A|-55555555--00000000---|
D|-55555555-------------|

(Gtr. 2 w/ Distortion)(Let All Chords Ring)
E|-3--------------------|
B|-3---------2----------|
G|-0---------2----------|
D|-0---------2----------|
A|-2---------0----------|
E|-3--------------------|

Bridge: (Gtr. 1 w/ Distortion)
e|------------------------------------------------------|
B|-----2h3---3-----2h3---3-----2h3----------------------|
G|---2---------2-----------2---------4444444444444444---|
D|-0-------0-----0-----0-----0-------4444444444444444---| 
A|-----------------------------------2222222222222222---| 
D|------------------------------------------------------|

e|------------------------------------------------------|
B|-----2h3---3-----2h3---3-----2h3----------------------|
G|---2---------2-----------2---------4444444444444444---|
D|-0-------0-----0-----0-----0-------4444444444444444---| 
A|-----------------------------------2222222222222222---| 
D|------------------------------------------------------|

Chorus: (Gtr. 1 w/ Distortion)
E|--------------------------------------------|
B|--------------------------------------------|
G|-----------77777777------------4444--2222---|
D|-55555555--77777777--44444444--4444--2222---|
A|-55555555--55555555--44444444--2222--0000---|
D|-55555555------------44444444---------------|

(Gtr. 2 w/ Distortion)
e|-------------------------------------------------------------------| 
B|-------------------------------------------------------------------|
G|-191919-18-19191919-19-18-1918-14-1515151515-18-15-1616-18161819~--|
D|--x-x-x--x--x-x-x-x--x--x--x-x--x--x-x-x-x-x--x--x--x-x--x-x-x-x---|
A|-171717-16-17171717-17-16-1716-12-1313131313-16-13-1414-16141617---|
E|-------------------------------------------------------------------|

(Gtr. 1 w/ Distortion)
E|--------------------------------------------|
B|--------------------------------------------|
G|-----------77777777------------4444--2222---|
D|-55555555--77777777--44444444--4444--2222---|
A|-55555555--55555555--44444444--2222--0000---|
D|-55555555------------44444444---------------|

(Gtr. 2 w/ Distortion)
e|-------------------------------------------------------------------| 
B|-------------------------------------------------------------------|
G|-191919-18-19191919-19-18-1918-14-1515151515-18-15-1616-18161819~--|
D|--x-x-x--x--x-x-x-x--x--x--x-x--x--x-x-x-x-x--x--x--x-x--x-x-x-x---|
A|-171717-16-17171717-17-16-1716-12-1313131313-16-13-1414-16141617---|
E|-------------------------------------------------------------------|

Verse: (Gtr. 1 & 2 w/ Distortion)
E|------------------------------------------|
B|------------------------------------------|
G|-----------77777777------------77777777---|
D|-55555555--77777777--77777777--77777777---|
A|-55555555--55555555--77777777--55555555---|
D|-55555555------------77777777-------------|

E|------------------------------------------|
B|------------------------------------------|
G|-----------77777777------------77777777---|
D|-55555555--77777777--77777777--77777777---|
A|-55555555--55555555--77777777--55555555---|
D|-55555555------------77777777-------------|

Chorus: (Gtr. 1 & 2 w/ Distortion)
E|--------------------------------------------|
B|--------------------------------------------|
G|-----------77777777------------4444--2222---|
D|-55555555--77777777--44444444--4444--2222---|
A|-55555555--55555555--44444444--2222--0000---|
D|-55555555------------44444444---------------|

E|--------------------------------------------|
B|--------------------------------------------|
G|-----------77777777------------4444--2222---|
D|-55555555--77777777--44444444--4444--2222---|
A|-55555555--55555555--44444444--2222--0000---|
D|-55555555------------44444444---------------|

E|--------------------------------------------|
B|--------------------------------------------|
G|-------------7777--------------4444--2222---|
D|-5555--------7777--------4444--4444--2222---|
A|-5555--------5555--------4444--2222--0000---|
D|-5555--------------------4444---------------|

E|--------------------------------------------|
B|--------------------------------------------|
G|-------------7777--------------4444--2222---|
D|-5555--------7777--------4444--4444--2222---|
A|-5555--------5555--------4444--2222--0000---|
D|-5555--------------------4444---------------|

Chorus: (Gtr. 1 & 2 w/ Distortion)
E|----------------------|
B|----------------------|
G|----------------------| (x4)
D|-55555555--77777777---|
A|-55555555--77777777---|
D|-55555555--77777777---|

Instrumental: (Gtr. 1 w/ Distortion and Palm Muting)
E|-------------------------------------|
B|-------------------------------------|
G|-7777777777777777--4444444444444444--|
D|-7777777777777777--4444444444444444--|
A|-5555555555555555--2222222222222222--|
D|-------------------------------------|
Ending: (Gtr. 1 w/ Distortion and Palm Muting)
E|-------------------------------------|
B|-------------------------------------|
G|-7777777777777777--4444444444444444--|
D|-7777777777777777--4444444444444444--|
A|-5555555555555555--2222222222222222--|
D|-------------------------------------|

(Gtr. 2 w/ Distortion)
E|-------------------------------------|
B|-3--------5/7----3----0----2----3----|
G|-------------------------------------|
D|-------------------------------------|
A|-------------------------------------|
E|-------------------------------------|

(Gtr. 1 w/ Distortion)
E|---|
B|---|
G|-7-|
D|-7-|
A|-5-|
D|---| (Let It Ring)

Lyrics:

(Verse)
Thought I Ran Into You Down On The Street
Then It Turned Out To Only Be A Dream

(Chorus)
I Made A Point To Burn All Of The Photographs
She Went Away And Then I Took A Different Path
I Remember The Face But I Canít Recall The Name
Now I Wonder How Whatsername Has Been

(Verse)
It Seems That You Disappeared Without A Trace
Did She Ever Marry Old Whatís His Face

(Chorus)
I Made A Point To Burn All Of The Photographs
She Went Away And Then I Took A Different Path
I Remember The Face But I Canít Recall The Name
Now I Wonder How Whatsername Has Been

(Verse)
Remember
Whatever
It Seems Like Forever Ago
Remember
Whatever
It Seems Like Forever Ago

(Chorus)
The Regrets Are Useless In My Mind
Sheís In My Head I Must Confess
The Regrets Are Useless In My Mind
Sheís In My Head So Long Ago

(Chorus)
And In The Darkest Night
If My Memory Serves Me Right
Iíll Never Turn Back Time
Forgetting You But Not The Time

| / slide up
| \ slide down
| h hammer-on
| p pull-off
| ~ vibrato
| + harmonic
| x Mute note
=======================================================================
Related for Whatsername tab
Whatsername chords by Green Day