Song name
# A B C D E F G H I J K L M N O P Q R S T U V W X Y Z

Green Day - Too Much Too Soon tab

#----------------------------------PLEASE NOTE---------------------------------#
#This file is the author's own work and represents their interpretation of the #
#song. You may only use this file for private study, scholarship, or research. #
#------------------------------------------------------------------------------#


Title: Too Much Too Soon
Artist: Green Day
Album: American Idiot (B-Sides)

Instrument: Guitar

Tabbed by:  Guido

Tuning: Select a Tuning... (E A D G B E)

           ---------------
           | *=palm mute  |
           | /=slide up   |
           | \=slide down |
           ---------------

|-----------------------------------------||
|-------------4-4-------------------------||\
|-4--4-4--4-4-4-4-6-6-9--9-9--9-9-9-11----|| \ X2
|-4--4-4--4-4-2-2-4-4-9--9-9--9-9-9-11----|| /
|-2--2-2--2-2---------7--7-7--7-7-7-9-----||/
|-----------------------------------------||

"She's always living like she's running out of time..." (2x) 
|----------------|----------------|----------------|----------------||
|----------------|----------------|----------------|----------------||
|-4-4-4-4-4-4-4-4|-4-4-4-4-4-4-4-4|----------------|----------------||
|-4-4-4-4-4-4-4-4|-4-4-4-4-4-4-4-4|-2-2-2-2-2-2-2-2|-4-4-4-4-4-4-4-4||
|-2-2-2-2-2-2-2-2|-2-2-2-2-2-2-2-2|-2-2-2-2-2-2-2-2|-4-4-4-4-4-4-4-4||
|----------------|----------------|-0-0-0-0-0-0-0-0|-2-2-2-2-2-2-2-2||
    * * *   *   *  *   *   *   *      * * *   * *      *   * *     *

|----------------|----------------|----------------|----------------||
|----------------|----------------|----------------|----------------||
|-4-4-4-4-4-4-4-4|-4-4-4-4-4-4-4-4|-9-9-9-9-9-9-9-9|1111-11-1111-11-||
|-4-4-4-4-4-4-4-4|-4-4-4-4-4-4-4-4|-9-9-9-9-9-9-9-9|1111-11-1111-11-||
|-2-2-2-2-2-2-2-2|-2-2-2-2-2-2-2-2|-7-7-7-7-7-7-7-7|-9-9-9-9-9-9-9-9||
|----------------|----------------|----------------|----------------||
    * * *   *   *  *   *   *   *      * * *   * *      *   * *     *
"The looks are always so deceiving..."                                                                      
|----------------|----------------|----------------|------------------||
|----------------|----------------|----------------|------------------||
|-9-9-9-9-9-9-9-9|----------------|----------------|--------------9-11||
|-9-9-9-9-9-9-9-9|-4-4-4-4-4-6-6-2|-2-2-2-2-2-2-2-4|-4-4-4-4-4----9-11||
|-7-7-7-7-7-7-7-7|-4-4-4-4-4-6-6-2|-2-2-2-2-2-2-2-4|-4-4-4-4-4----7-9-||
|----------------|-2-2-2-2-2-4-4-0|-0-0-0-0-0-0-0-2|-2-2-2-2-2--------||

"Too much too soon..." 
|-----------------------------------------||
|-------------4-4-------------------------||\
|-4--4-4--4-4-4-4-6-6-9--9-9--9-9-9-11----|| \ X4
|-4--4-4--4-4-2-2-4-4-9--9-9--9-9-9-11----|| /
|-2--2-2--2-2---------7--7-7--7-7-7-9-----||/
|-----------------------------------------||

Riff:
|--------------------------||
|--------------------------||\
|-4--4-4-4-----------------|| \ X2
|-4--4-4-4-4-4-4-2-2-2-2---|| /
|-2--2-2-2-4-4-4-2-2-2-2---||/
|----------2-2-2-0-0-0-0---||

"He's talking shit about how it's better way back when..." (2x) 
|----------------|----------------|----------------|----------------||
|----------------|----------------|----------------|----------------||
|-4-4-4-4-4-4-4-4|-4-4-4-4-4-4-4-4|----------------|----------------||
|-4-4-4-4-4-4-4-4|-4-4-4-4-4-4-4-4|-2-2-2-2-2-2-2-2|-4-4-4-4-4-4-4-4||
|-2-2-2-2-2-2-2-2|-2-2-2-2-2-2-2-2|-2-2-2-2-2-2-2-2|-4-4-4-4-4-4-4-4||
|----------------|----------------|-0-0-0-0-0-0-0-0|-2-2-2-2-2-2-2-2||
    * * *   *   *  *   *   *   *      * * *   * *      *   * *     *

|----------------|----------------|----------------|----------------||
|----------------|----------------|----------------|----------------||
|-4-4-4-4-4-4-4-4|-4-4-4-4-4-4-4-4|-9-9-9-9-9-9-9-9|11-1111-1111-11-||
|-4-4-4-4-4-4-4-4|-4-4-4-4-4-4-4-4|-9-9-9-9-9-9-9-9|11-1111-1111-11-||
|-2-2-2-2-2-2-2-2|-2-2-2-2-2-2-2-2|-7-7-7-7-7-7-7-7|-9-9-9-9-9-9-9-9||
|----------------|----------------|----------------|----------------||
    * * *   *   *  *   *   *   *      * * *   * *      *   * *     *

"The looks are always so deceiving..."                                                                      
|----------------|----------------|----------------|------------------||
|----------------|----------------|----------------|------------------||
|-9-9-9-9-9-9-9-9|----------------|----------------|--------------9-11||
|-9-9-9-9-9-9-9-9|-4-4-4-4-4-6-6-2|-2-2-2-2-2-2-2-4|-4-4-4-4-4----9-11||
|-7-7-7-7-7-7-7-7|-4-4-4-4-4-6-6-2|-2-2-2-2-2-2-2-4|-4-4-4-4-4----7-9-||
|----------------|-2-2-2-2-2-4-4-0|-0-0-0-0-0-0-0-2|-2-2-2-2-2--------||

"Too much too soon..." 
|-----------------------------------------||
|-------------4-4-------------------------||\
|-4--4-4--4-4-4-4-6-6-9--9-9--9-9-9-11----|| \ X4
|-4--4-4--4-4-2-2-4-4-9--9-9--9-9-9-11----|| /
|-2--2-2--2-2---------7--7-7--7-7-7-9-----||/
|-----------------------------------------||

Riff:
|--------------------------||
|--------------------------||\
|-4--4-4-4-----------------|| \ X2
|-4--4-4-4-4-4-4-2-2-2-2---|| /
|-2--2-2-2-4-4-4-2-2-2-2---||/
|----------2-2-2-0-0-0-0---||

"She packs her bags and says goodbye and bon voyage..." 
|------------------------------------------------------------------||
|-------------------------------------------11-------12-------14---||
|-/13---\9-9p8---8/11--/13---\9-9p8--/11-11----11-11----11-11------||
|------------------------------------------------------------------||
|------------------------------------------------------------------||
|------------------------------------------------------------------||

|-----------------------------------------||
|-------------4-4-------------------------||\
|-4--4-4--4-4-4-4-6-6-9--9-9--9-9-9-11----|| \ X8
|-4--4-4--4-4-2-2-4-4-9--9-9--9-9-9-11----|| /
|-2--2-2--2-2---------7--7-7--7-7-7-9-----||/
|-----------------------------------------||

Riff:
|--------------------------||
|--------------------------||\
|-4--4-4-4-----------------|| \ X4
|-4--4-4-4-4-4-4-2-2-2-2---|| /
|-2--2-2-2-4-4-4-2-2-2-2---||/
|----------2-2-2-0-0-0-0---||
Tap to rate this tab
 
# A B C D E F G H I J K L M N O P Q R S T U V W X Y Z