Guitaretab - guitar tabs
Song name
# A B C D E F G H I J K L M N O P Q R S T U V W X Y Z

Green Day - I Want To Be Alone tab

Tabbed by: Sam Champness
Email:

Tuning:

e|---------------------10b--10--12--12b--12b--12-12b--12--10-12-10-|
B|----10-10---13b-13b----------------------------------------------|
G|-12--------------------------------------------------------------|
D|-----------------------------------------------------------------|
A|-----------------------------------------------------------------|
E|-----------------------------------------------------------------|

e|-----10---12-12b-----12--10-12-10------10--10---17-17-----------|
B|-12--------------------------------12---------------------------|
G|----------------------------------------------------------------|
D|----------------------------------------------------------------|
A|----------------------------------------------------------------|
E|----------------------------------------------------------------|
[ Tab from: http://www.guitaretab.com/g/green-day/61815.html ]
   ~~~~~~~~~~~~~~~~~~~~~~(Shredding)
e|-17-\-15-\-14-\-12-\-10------------13-12-10----------------------|
B|---------------------------------------------13-12-10------------|
G|-------------------------------------------------------13-12-10--|
D|-----------------------------------------------------------------|
A|-----------------------------------------------------------------|
E|-----------------------------------------------------------------|

e|----------------------------------10-10------10-10------10-10---|
B|----------------------------------10-10------10-10------10-10---|
G|-10-10-10-10-10--1210--12b---12b--------12b--------12b---------|
D|----------------------------------------------------------------|
A|----------------------------------------------------------------|
E|----------------------------------------------------------------|

e|-----10-10------------------------------------------------------|
B|-----10-10------------------------------------------------------|
G|-12b----------12b-12b-------------------------------------------|
D|----------------------------------------------------------------|
A|----------------------------------------------------------------|
E|----------------------------------------------------------------|

====================================================================
Related for I Want To Be Alone tab