Song name
# A B C D E F G H I J K L M N O P Q R S T U V W X Y Z

Green Day - Minnesota Girl tab

hey i noticed the other tab didn't have the solo so i decided to tab it out.
It's pretty simple.

e---------------------------------------------|
B---------------------------------------------|
G---------------------------------------------|
D-------4-5-4-------------------4-5-4-----7~--|
A---5~--------7-5---5~-------5~-------7-5-----|
E-----------------7---------------------------|

e---------------------------------------------|
B---------------------------------------------|
G---------------------------------------------|
D-------4-5-4-------------------4----4--------|
A---5~--------7-5---5---5----5~---7~---7-5~---|
E-----------------7---7-----------------------|
Tap to rate this tab
# A B C D E F G H I J K L M N O P Q R S T U V W X Y Z