Guitaretab - guitar tabs
Song name
# A B C D E F G H I J K L M N O P Q R S T U V W X Y Z
Home / G / Green Day / 80 tab

Green Day - 80 tab

-##
From: SkunX42@aol.com
Date: Fri, 8 Dec 1995 15:24:29 -0500

Song:80
Band: Green Day
Album: Kerplunk
posted by:  SkunX42@aol.com
=0D
i'm not 100% sure about this, but it sounds good to me.  =

i'll post any corrections i make, if any
=0D
CHORDS
=0D

    A       D      G       C
|------------------------------------|
|------------------------------------|
|-----------7--------------5---------|
|---7-------7------5-------5---------|
|---7-------5------5-------3---------|
|---5--------------3-----------------|
=0D
Intro:  hit a D chord
=0D
Verse bassline:
=0D
|------------------------------------------------------------|
|-----7---7---7---7---------------------------5---5---5---5--|
|---5---5---5---5--------7---7---7---7------3---3---3---3----|
|---------------------5----5---5---5---5---------------------|
=0D
|---------------------|
|---------------------|
|------5---5---5---5--|
|---3---3---3----3----|
(bass only)
my mental stability reaches it's bitter end
and all my senses are coming unglued
is there any cure for this disease someone called love
not as long as there are girls like you
=0D
PreChorus:
=0D
D    A              D                   A
everything she does questions my mental health
D           A            D            A
it makes me lose control i wanna hurt myself
=0D
CHORUS:
=0D
G     C               D                  A
if anyone can hear me slap some sense in me
             C                   G          D
but you turn around and i end up talking to myself
G    C             D              A
anxiety has got me strung out and frustrated
                  C            G              A
so i lose my head or i bang it up against the wall
=0D
Verse:
=0D
D           A                  C       G
sometimes i wonder if i should be left alone
(same chords)
lock myself up in a padded room
i'd sit and spew my guts ot into the open air
cause no one wants to hear a drunken fool
=0D
PreChrorus
=0D
CHORUS
=0D
Bridge:
=0D
D        C                 G      C-G
i do not mind if this goes on
=0D
(same chords)
cause now it seems i'm too far gone
D      C            A       G
i must admit that i enjoy myself
D              C         G
80 please keep taking me away
=0D
D    A    C    G
away...
=0D
PreChorus
=0D
CHORUS
=0D
repeat Verse riff until end
=0D
that's it punks.  send all questions, comments, punk tabs, or requests
(i'll do my best)  to me at:  SkunX42@aol.com
=0D
OI!=

--PART.BOUNDARY.0.685.emout05.mail.aol.com.818454264--
[ Tab from: http://www.guitaretab.com/g/green-day/7358.html ]
Related for 80 tab
80 chords by Green Day