Guitaretab - guitar tabs
Song name
# A B C D E F G H I J K L M N O P Q R S T U V W X Y Z
Home / G / Green Day / 86 tab

Green Day - 86 tab

----------------------------------------------------------------------------
			86   - GREEN DAY
----------------------------------------------------------------------------
Tabbed by:pedro
Email: pedro_blg@hotmail.com 
Album: insomniac
Track: 7


Intro:
e|-------------------------------------------------------------------------|
B|-------------------------------------------------------------------------|
G|-8--8-8-8-8--------------------------------------------------------------|
D|-8--8-8-8-8----5--5-5-5-5----6--6-6-6-6-6-6-6-6-6------------------------|
A|-6--6-6-6-6----5--5-5-5-5----6--6-6-6-6-6-6-6-6-6------------------------|
E|---------------3--3-3-3-3----4--4-4-4-4-4-4-4-4-4------------------------|


Verse:
e|-------------------------------------------------------------------------|
B|-------------------------------------------------------------------------|
G|-8-88888888888-----------------------------------------------------------|
D|-8-88888888888----8-88888888888----6-66666666666----4-44444444444--------|
A|-6-66666666666----8-88888888888----6-66666666666----4-44444444444--------|
E|------------------6-66666666666----4-44444444444----6-66666666666--------|
  p.m.________        ___________      
  what brings...    'round?          Did you lose...  the last time...
  you'll never...   now.             It's buried...   your identity.

[ Tab from: http://www.guitaretab.com/g/green-day/7360.html ]
pre-chorus
e|-------------------------------------------------------------------------|
B|-------------------------------------------------------------------------|
G|-------------------------------------------------------------------------|
D|--888888888888888------6------6------6-----------------------------------|
A|--888888888888888------6------6------6-----------------------------------|
E|--666666666666666------4------4------4-----------------------------------|
    So stand aside...   next   one    pass
    Don't let the...     in    the    ass


Chorus:
e|-------------------------------------------------------------------------|
B|-------------------------------------------------------------------------|
G|-8--8-8-8-8--------------------------------------------------------------|
D|-8--8-8-8-8----5--5-5-5-5----6--6-6-6-6-6-6-6-6-6------------------------|
A|-6--6-6-6-6----5--5-5-5-5----6--6-6-6-6-6-6-6-6-6------------------------|
E|---------------3--3-3-3-3----4--4-4-4-4-4-4-4-4-4------------------------|
   There's       no return     from  86




Bridge:
e|-------------------------------------------------------------------------|
B|-------------------------------------------------------------------------|
G|-------------------------------------------------------------------------|
D|---8-8-88--66-----------------8-8-88--66---666666666666------------------|
A|---8-8-88--66-----------------8-8-88--66---666666666666------------------|
E|---6-6-66--44-----------------6-6-66--44---444444444444------------------|



End:
e|-------------------------------------------------------------------------|
B|-------------------------------------------------------------------------|
G|-------------------------------------------------------------------------|
D|---8-8-88--66------------------------------------------------------------|
A|---8-8-88--66------------------------------------------------------------|
E|---6-6-66--44------------------------------------------------------------|



Intro x2
Verse x2
Pre-chorus x2
Chorus x4
Verse x2
Pre-chorus x2
Chorus x4
Intro x4
Bridge
Chorus x4
End.



I think it plays pretty good. I'm a guitar player and we usually play this song!!it's one of their best!!
Comments and question to:  pedro_blg@hotmail.com  
Enjoy it!!
Related for 86 tab
×
86