Song name
# A B C D E F G H I J K L M N O P Q R S T U V W X Y Z

Green Day - All By Myself tab

-------------------------------------------------------------------------------
			     All By Myself - Green Day
-------------------------------------------------------------------------------
Tabbed by: iamabasketcase
Email: starmaker1991@go.com

Tuning: standard

e|--------2-------2-------2-------2-----------3-------3-------3-------3----|
B|------------3-------3-------3-------3-----------3-------3-------3-------3|
G|--------------------------------------------0----------------------------|
D|--------0----------------------------------------------------------------|
A|-------------------------------------------------------------------------|
E|-------------------------------------------------------------------------|

e|--------2-------2-------2-------2-----------3-------3-------3-------3----|
B|------------3-------3-------3-------3-----------3-------3-------3-------3|
G|--------------------------------------------0----------------------------|
D|--------0----------------------------------------------------------------|
A|-------------------------------------------------------------------------|
E|-------------------------------------------------------------------------|
|I was alone

e|--------2-------2-------2-------2-----------3-------3-------3-------3----|
B|------------3-------3-------3-------3-----------3-------3-------3-------3|
G|--------------------------------------------0----------------------------|
D|--------0----------------------------------------------------------------|
A|-------------------------------------------------------------------------|
E|-------------------------------------------------------------------------|
|I was all by myself

e|--------2-------2-------2-------2-----------3-------3-------3-------3----
B|------------3-------3-------3-------3-----------3-------3-------3-------3|
G|--------------------------------------------0----------------------------|
D|--------0----------------------------------------------------------------|
A|-------------------------------------------------------------------------|
E|--------------------------------------------------------------------------|No one was looking

e|--------2-------2-------2-------2-----------3-------3-------3-------3----|
B|------------3-------3-------3-------3-----------3-------3-------3-------3|
G|--------------------------------------------0----------------------------|
D|--------0----------------------------------------------------------------|
A|-------------------------------------------------------------------------|
E|------------------------------------------------------------------------  |I was thinking of you

e|--------4-------4-------4-------4-----------5-------5-------5-------5----|
B|------------5-------5-------5-------5-----------5-------5-------5-------5|
G|-------------------------------------------------------------------------|
D|-------------------------------------------------------------------------|
A|--------------------------------------------0----------------------------|
E|--------0----------------------------------------------------------------|
|I was all by myself

e|--------4-------4-------4-------4-----------5-------5-------5-------5----|
B|------------5-------5-------5-------5-----------5-------5-------5-------5|
G|-------------------------------------------------------------------------|
D|-------------------------------------------------------------------------|
A|--------------------------------------------0---------------------------|
E|--------0----------------------------------------------------------------|
|All by myself

e|--------2-------2-------2-------2-----------3-------3-------3-------3----|
B|------------3-------3-------3-------3-----------3-------3-------3-------3|
G|--------------------------------------------0----------------------------|
D|--------0----------------------------------------------------------------|
A|-------------------------------------------------------------------------|
E|------------------------------------------------------------------------  |I went to your house

e|--------2-------2-------2-------2-----------3-------3-------3-------3----|
B|------------3-------3-------3-------3-----------3-------3-------3-------3|
G|--------------------------------------------0----------------------------|
D|--------0----------------------------------------------------------------|
A|-------------------------------------------------------------------------|
E|------------------------------------------------------------------------  |But no one was there

|--------2-------2-------2-------2-----------3-------3-------3-------3----|
B|------------3-------3-------3-------3-----------3-------3-------3-------3|
G|--------------------------------------------0----------------------------|
D|--------0----------------------------------------------------------------|
A|-------------------------------------------------------------------------|
E|------------------------------------------------------------------------  |I went in your room

|--------2-------2-------2-------2-----------3-------3-------3-------3----|
B|------------3-------3-------3-------3-----------3-------3-------3-------3|
G|--------------------------------------------0----------------------------|
D|--------0----------------------------------------------------------------|
A|-------------------------------------------------------------------------|
E|------------------------------------------------------------------------  |I was all by myself

e|--------4-------4-------4-------4-----------5-------5-------5-------5----|
B|------------5-------5-------5-------5-----------5-------5-------5-------5|
G|-------------------------------------------------------------------------|
D|-------------------------------------------------------------------------|
A|--------------------------------------------0----------------------------|
E|--------0----------------------------------------------------------------|
|You and me had

e|--------4-------4-------4-------4-----------5-------5-------5-------5----|
B|------------5-------5-------5-------5-----------5-------5-------5-------5|
G|-------------------------------------------------------------------------|
D|-------------------------------------------------------------------------|
A|--------------------------------------------0----------------------------|
E|--------0----------------------------------------------------------------|
|Such wonderful times

e|--------4-------4-------4-------4-----------5-------5-------5-------5----|
B|------------5-------5-------5-------5-----------5-------5-------5-------5|
G|-------------------------------------------------------------------------|
D|-------------------------------------------------------------------------|
A|--------------------------------------------0----------------------------|
E|--------0----------------------------------------------------------------|
|When im all by myself

e|--------4-------4-------4-------4-----------5-------5--------------------|
B|------------5-------5-------5-------5-----------5-------5----------------|
G|-------------------------------------------------------------------------|
D|-------------------------------------------------------------------------|
A|--------------------------------------------0----------------------------|
E|--------0----------------------------------------------------------------|
|All by myself
Tap to rate this tab
 
# A B C D E F G H I J K L M N O P Q R S T U V W X Y Z