Song name
# A B C D E F G H I J K L M N O P Q R S T U V W X Y Z

Green Day - Babs Uvula Who tab

Babs Uvla Who-Green Day

Guitarist-Billie Joe Armstrong

Album-Insomniac

Tabber-Green Day FReak

  Intro[part 1]:

e|-------------------------------------
B|-------------------------------------
G|-------------------------------------
D|-9---------7----------4--------------
A|-9---------7----------4--------------
E|-7---------5----------2--------------
   B5        A5         F#5

  Intro[part 2/verse]:

e|-------------------------------------
B|-------------------------------------
G|-------------------------9-9-9-9-----
D|-9-9----9-9----9-9----7--9-9-9-9-----
A|-9-9----9-9----9-9----7--7-7-7-7-----
E|-7-7----7-7----7-7----5--------------
   B5     B5     B5     A5 E5


  Choros:

e|--------------------------------------
B|--------------------------------------
G|---------------9-9--------------------
D|-9-9-9-9--7-7--9-9--------------------
A|-9-9-9-9--7-7--7-7--------------------
E|-7-7-7-7--5-5-------------------------
   B5       A5   E5

  Bridge[Faster Strumming]:

e|-------------------------------------------------------
B|-------------------------------------------------------
G|-------------------------------------------------------
D|-9--9-9--x-x--9-9--9--9--x-x--9-9--9--9--x-x-9-7-------
A|-9--9-9--x-x--9-9--9--9--x-x--9-9--9--9--x-x-9-7-------
E|-7--7-7--x-x--7-7--7--7--x-x--7-7--7--7--x-x-7-7-------
   B5                          

e|-------------------------------------------
B|-------------------------------------------
G|----9-9-9-9--------------------------------
D|-7--9-9-9-9--------------------------------
A|-7--7-7-7-7--------------------------------
E|-5-----------------------------------------
   A5 E5

Thats about it-listen to CD for strumming!

Green Day rock!!!!
Tap to rate this tab
# A B C D E F G H I J K L M N O P Q R S T U V W X Y Z