Song name
# A B C D E F G H I J K L M N O P Q R S T U V W X Y Z

Green Day - King For A Day tab

Green Day king for a day
From the album nimrod
Track: 16
Tabbed by Liam 
Email: guitar_rocker_47@hotmail.com
Tuning standard

I recently saw Billie and the guys perform this live at the M.E.N arena 29th January
and it kicked so much ass, unluckily though some other guys was playing guitar and
Billie was just running round with a cape and crown on. So I couldn't see what he was
playing but anyway now I have just worked it out on the morning of march 27, 9.29 or
is that 10.29 oh yeah clocks have gone forward but anyway here is the album version of
king for a day.


Verse/chorus
E|----------------------------|----------------------------|
B|----------------------------|----------------------------|
G|-9-x-x---------9-x-x--------|-6-x-x---------6-x-x--------|
D|-9-x-x--9-9-9--9-x-x--9-9-9-|-6-x-x--6-6-6--6-x-x--6-6-6-|
A|-7-x-x--9-9-9--7-x-x--9-9-9-|-4-x-x--6-6-6--4-x-x--6-6-6-|
E|--------7-7-7---------7-7-7-|--------4-4-4---------4-4-4-|

Fill 1
E|---------------------|
B|---------------------|
G|-6-6-6-6-6-6-6-6-6-6-|
D|-6-6-6-6-6-6-6-6-6-6-|
A|-4-4-4-4-4-4-4-4-4-4-|
E|---------------------|	

Pre Chorus
E|------------------------------------------|
B|------------------------------------------|
G|------------------------------------------|
D|-7-7-7-7-7-7-7-7-7-7--9-9-9-9-9-9-9-9-9-9-|
A|-7-7-7-7-7-7-7-7-7-7--9-9-9-9-9-9-9-9-9-9-|
E|-5-5-5-5-5-5-5-5-5-5--7-7-7-7-7-7-7-7-7-7-|

Post chorus
E|------------------------------------------|
B|------------------------------------------|
G|------------------------------------------|
D|-7-7-7-7-7-7-7-7-7-7--9-9-9-9-9-9-9-9-9-9-|
A|-7-7-7-7-7-7-7-7-7-7--9-9-9-9-9-9-9-9-9-9-|
E|-5-5-5-5-5-5-5-5-5-5--7-7-7-7-7-7-7-7-7-7-|

Order

Verse x6 (palm mute all)
Fill 1
Pre Chorus x4
Chorus x3
Post Chorus
Verse x6 (palm mute all)
Fill 1
Pre Chorus x4
Chorus x3
Post Chorus
Verse x8 (palm mute all)
Fill 1
Pre Chorus x4
Chorus x7
Post Chorus x3
Verse x9 (palm mute all)
Tap to rate this tab
# A B C D E F G H I J K L M N O P Q R S T U V W X Y Z