Guitaretab - guitar tabs
Song name
# A B C D E F G H I J K L M N O P Q R S T U V W X Y Z

Green Day - My Generation tab

-------------------------------------------------------------------------------
			     MY GENERATION SOLO-Green Day
-------------------------------------------------------------------------------
Tabbed by: Thedboy

| /  slide up
| \  slide down
| h  hammer-on
| p  pull-off
| ~  vibrato
| +  harmonic
| x  Mute note
| s  stop chord immediately after youve played it.

Tuning: Down half a step

I downloaded a tab for the whole kerplunk album, which had the solos for Strangeland, 
Best thing in Town and My Generation, so here is the solo of My Generation.


e----------------------------------7---14-7-10p7----7-10b-10b-10b-10-7----7h10p7-|
B7~--7~---7~---7~---7h10p7-7----7-10b-----------10--------------------10--------|
G-9b~-9b~--9b~--9b~-----------10-------------------------------------------------| 
D--------------------------------------------------------------------------------|
A--------------------------------------------------------------------------------|
E--------------------------------------------------------------------------------|
[ Tab from: http://www.guitaretab.com/g/green-day/7415.html ]
e-----------------------------------------------------------------------------|
B10-8-7------------------------------------------------------------7-7-10b---|
G--------9b-7---7~-7-7h9p7---7---------------------7-7-7h9p7---7-9b---------10|
D-------------9------------9---9-8-7-7-7h9p7---7-9---9-------9----------------|
A--------------------------------------------9--------------------------------|
E-----------------------------------------------------------------------------|
  
e-7h10p7----7-10b-10b-12-10h12p10-12b-12b-12b-12-10------------7-7h10p7------|
B-------10------------------------------------------12-12p10-----------10-8-|
G----------------------------------------------------------------------------|
D----------------------------------------------------------------------------|
A----------------------------------------------------------------------------|
E----------------------------------------------------------------------------|

e-5-3-2-0-2---3p2-0----------------------------------------------------------|
B------0-0---0---0-5h7p5------7-7~--7~--7~--7~--7~--7~--7~--7~--------------|
G-----------0--------------7h9-7-9b~-9b~-9b~-9b~-9b~-9b~-9b~-9b~-------------|
D----------------------------------------------------------------------------|
A----------------------------------------------------------------------------|
E----------------------------------------------------------------------------|
==============================================================================================
Related for My Generation tab