Song name
# A B C D E F G H I J K L M N O P Q R S T U V W X Y Z

Green Day - Road To Acceptance tab

-------------------------------------------------------------------------------
			     ROAD TO ACCEPTANCE – Green Day
-------------------------------------------------------------------------------
Tabbed by: Thedboy

Tuning: Down a quarter of a step

| /  slide up
| \  slide down
| h  hammer-on
| p  pull-off
| ~  vibrato
| +  harmonic
| x  Mute note


Intro
e----------------------------------------------------------------------------------|
B-7777-8888-10101010-8888--------7777-8888-10101010101010101010101010101010--------|
G-7777-7777--7-7-7-7-7777---(x3)-7777-7777--7-7-7-7-7-7-7-7-7-7-7-7-7-7-7-7--------|
D----------------------------------------------------------------------------------|
A----------------------------------------------------------------------------------|
E----------------------------------------------------------------------------------|

Intro (continued)
e---------------------------------------------------------------------------|
B—--------------------------------------------------------------------------|
G----555-777x777----555-777x777---------------------------------------------|
D-555555-777x777-555555-777x777---------------------------------------------|
A-555333-555x555-555333-555x555---------------------------------------------|
E-333------------333--------------------------------------------------------|

Verse 1: (x2)
e---------------------------------------------------------------------------|
B—--------------------------------------------------------------------------|
G----555-777x777----555-777x777---------------------------------------------|
D-555555-777x777-555555-777x777---------------------------------------------|
A-555333-555x555-555333-555x555---------------------------------------------|
E-333------------333--------------------------------------------------------|

Chorus: (x2) (And I feel forgotten…)
e--------------------------------------------------------------------------|
B--------------------------------------------------------------------------|
G-4444444444-222222222222------5-55----------------5-55--------------------|
D-4444444444-222222222222-2-22-5-55-5-55-5555-2-22-5-55-5-55-5555----------|
A-2222222222-000000000000-2-22-3-33-5-55-5555-2-22-3-33-5-55-5555----------|
E-------------------------0-00------3-33-3333-0-00------3-33-3333----------|

Post chorus:
e---------------------------------------------------------------------------------|
B—--------------------------------------------------------------------------------|
G-777-7-7-7-777-7-7-7-555-5-5-5-----------777-7-7-7-777-7-7-7-555-5-5-5-----------|
D-777-7-7-7-777-7-7-7-555-5-5-5-555-5-5-5-777-7-7-7-777-7-7-7-555-5-5-5-555-5-5-5-|
A-555-5-5-5-555-5-5-5-333-3-3-3-555-5-5-5-555-5-5-5-555-5-5-5-333-3-3-3-555-5-5-5-|
E-------------------------------333-3-3-3-------------------------------333-3-3-3-|


e---------------------------------------------------------------------------------|
B—--------------------------------------------------------------------------------|
G-7-77-555-7-777-5-5-555---------5-5-555---------5-5-555--------------------------|
D-7-77-555-7-777-5-5-555-5-5-555-5-5-555-5-5-555-5-5-555-5~-----------------------|
A-5-55-333-5-555-3-3-333-5-5-555-3-3-333-5-5-555-3-3-333-5~-----------------------|
E------------------------3-3-333---------3-3-333---------3~-----------------------|


Verse 2: (x2)

e---------------------------------------------------------------------------|
B—--------------------------------------------------------------------------|
G----555-777x777----555-777x777---------------------------------------------|
D-555555-777x777-555555-777x777---------------------------------------------|
A-555333-555x555-555333-555x555---------------------------------------------|
E-333------------333--------------------------------------------------------|

Interlude: The interlude is the same lyrics and guitar riff as the post chorus. However, 
guitar doesn’t come in until the line ‘You would realise’ where you play a killer pick 
and the following line you start the guitar again.

Outro
e|---------------------------------------------------------------------------|
B|---------------------------------------------------------------------------|
G|-555-4-----555-4-----555-4-----7s------------------------------------------|
D|-555-4-5-5-555-4-5-5-555-4-5~--7s------------------------------------------|
A|-333-2-5-5-333-2-5-5-333-2-5~--5s------------------------------------------|
E|-------3-3-------3-3-------3~----------------------------------------------|


Order
Intro
Verse 1
Chorus
Post Chorus
Verse 2
Chorus
Interlude
Outro

Lyrics:
Intro:
I always waste my time just wondering
What the next man thinks of me
And I'll never do exactly what I want
And I'll sculpt my life for your acceptance

Verse 1:
I always waste my time just wondering
What the next man thinks of me
I'll never do exactly what I want
And I'll sculpt my life for your acceptance

Chorus:
And I feel forgotten
Feel like rotting
(Do you feel the same?)
(Do you feel the same?)
Adolescence
Just can't make sense
(It's calling my name!)
(It's calling my name!)

Post Chorus:
I take a look around
And all the things I've found
I call it blind hatred
If you'd stop a while
And maybe if you'd smile
You would realize that
We're all the same!
It's just like our brain
When it goes insane
We feel the same pain

Verse 2:
All my life I've seemed to have this need
I think at times it even turns to greed
We all want to join some family
We'll even sacrifice a moral changing

Chorus

Post Chorus

Post Chorus (again)
==============================================================================================
Tap to rate this tab
 
# A B C D E F G H I J K L M N O P Q R S T U V W X Y Z