Song name
# A B C D E F G H I J K L M N O P Q R S T U V W X Y Z

Green Day - The Grouch tab

This song rocks! I dedicate it to Teachers! PLEASE Email me at AmericanNimrodGuitar@gmail.com

I present......The Grouch!(MY STYLE!Yeah!!!!!!)


      Verse(s)
|--------------------------------------------------------------------------|
|---x-0-0-x-----x-7-7-x-----x-0-0-x-----x-7-7-x-----x-0-0-x-----x-7-7-x----|
|-6-x-1-1-x-6-6-x-7-7-x-6-6-x-1-1-x-6-6-x-7-7-x-6-6-x-1-1-x-6-6-x-7-7-x----|
|-7-x-2-2-x-7-7-x-7-7-x-7-7-x-2-2-x-7-7-x-7-7-x-7-7-x-2-2-x-7-7-x-7-7-x----|
|-7-x-2-2-x-7-7-x-5-5-x-7-7-x-2-2-x-7-7-x-5-5-x-7-7-x-2-2-x-7-7-x-5-5-x----|
|-5-x-0-0-x-5-5-x-----x-5-5-x-0-0-x-5-5-x-----x-5-5-x-0-0-x-5-5-x-----x----|

 cont.
|-----------------------|
|-----------------------|
|-6-6-x-1-1-x-6-6-6-6-6-|
|-7-7-x-2-2-x-7-7-7-7-7-|
|-7-7-x-2-2-x-7-7-7-7-7-|
|-5-5-x-0-0-x-5-5-5-5-5-|

Chorus
|-----------------------------------------------|
|---x-7-7-x-----x-0-0-x-------7-7-x-----x-0-0-x-|
|---x-7-7-x-6-6-x-1-1-x-------7-7-x-6-6-x-1-1-x-|       X's 2
|-4-x-7-7-x-7-7-x-2-2-x-4-4-x-7-7-x-7-7-x-2-2-x-|
|-4-x-5-5-x-7-7-x-2-2-x-4-4-x-5-5-x-7-7-x-2-2-x-|
|-2-x-----x-5-5-x-0-0-x-2-2-x-----x-5-5-x-0-0-x-|

end of chorus
|----------------------|
|-7-7-7-7-7-7-7-7------|
|-7-7-7-7-7-7-7-7------|
|-7-7-7-7-7-7-7-7------|
|-5-5-5-5-5-5-5-5------|
|----------------------|

Solo
|--------------------------------------------------------------|
|--------------------------------------------------------------|
|-9-99-11-11-99-99-99-77-99-\-4-666666644446677-6-11-9-7-6-4-2-|
|--------------------------------------------------------------|
|--------------------------------------------------------------|
|--------------------------------------------------------------|

solo cont. (slash with all your might!)
|-x-x-x-x-x-x-x-x-x-x-x-x-x-x-x-x-x-x-x-x-x-------(x)-|
|-x-x-7-7-x-x-x-x-x-x-x-x-x-x-x-7-7-7-7-x-x-------(7)-|
|-x-x-7-7-x-6-6-x-1-1-x-6-6-6-6-7-7-7-7-x-6-6-6-6-(7)-|
|-4-x-7-7-x-7-7-x-2-2-x-7-7-7-7-7-7-7-7-x-7-7-7-7-(7)-|  X's 2
|-4-x-5-5-x-7-7-x-2-2-x-7-7-7-7-5-5-5-5-x-7-7-7-7-(5)-|
|-2-x-x-x-x-5-5-x-0-0-x-5-5-5-5-x-x-x-x-x-5-5-5-5-(x)-|

solo ending (continue second time with notes in the ()
|-x-x-x-x-x-x-x-x-|
|-7-7-7-7-7-7-7-7-|
|-7-7-7-7-7-7-7-7-|
|-7-7-7-7-7-7-7-7-|
|-5-5-5-5-5-5-5-5-|
|-x-x-x-x-x-x-x-x-|

 Ending(play the part "the world owes me so f*** you part as many times as needed than this)
|-x-x-x-x-x-x-x-x---|
|-7-7-7-7-7-7-7-7---|
|-7-7-7-7-7-7-7-7-6-|
|-7-7-7-7-7-7-7-7-7-|
|-5-5-5-5-5-5-5-5-7-|
|-x-x-x-x-x-x-x-x-5-|
Tap to rate this tab
 
# A B C D E F G H I J K L M N O P Q R S T U V W X Y Z