Guitaretab - guitar tabs
Song name
# A B C D E F G H I J K L M N O P Q R S T U V W X Y Z

Green Day - Why Do You Want Him tab

------------------------------------------------------------------------------
			     WHY DO YOU WANT HIM - Green day
-------------------------------------------------------------------------------
Tabbed by: Thedboy

Tuning: Down half a step.

| /  slide up
| \  slide down
| h  hammer-on
| p  pull-off
| ~  vibrato
| +  harmonic
| x  Mute note

Yep. Written when BJ was 14. There is already a pretty good tab for this on here, but 
submitting it because there are differences between this one and the other one.

Intro:
e|---------------------------------------------------------------------------|
B|---------------------------------------------------------------------------|
G|-9-9-999-6-6-666-----------------9-9-999-6-6-666---------------------------|
D|-9-9-999-6-6-666-7-7-777-9-9-999-9-9-999-6-6-666-7-7-777-9-9-999-----------|
A|-7-7-777-4-4-444-7-7-777-9-9-999-7-7-777-4-4-444-7-7-777-9-9-999-----------|
E|-----------------5-5-555-7-7-777-----------------5-5-555-7-7-777-----------|

e|-0-0-000-------------------------0-0-000-----------------------------------|
B|-0-0-000-------------------------0-0-000-----------------------------------|
G|-1-1-111-4-4-444-----------------1-1-111-4-4-444---------------------------|
D|-2-2-222-4-4-444-6-6-666-7-7-777-2-2-222-4-4-444-6-6-666-7-7-777-----------|
A|-2-2-222-2-2-222-6-6-666-7-7-777-2-2-222-2-2-222-6-6-666-7-7-777-----------|
E|-0-0-000---------4-4-444-5-5-555-0-0-000---------4-4-444-5-5-555-----------|


Verse:
e|-0-0-000-------------------------0-0-000-----------------------------------|
B|-0-0-000-------------------------0-0-000-----------------------------------|
G|-1-1-111-4-4-444-----------------1-1-111-4-4-444---------------------------|
D|-2-2-222-4-4-444-6-6-666-7-7-777-2-2-222-4-4-444-6-6-666-7-7-777-----------|
A|-2-2-222-2-2-222-6-6-666-7-7-777-2-2-222-2-2-222-6-6-666-7-7-777-----------|
E|-0-0-000---------4-4-444-5-5-555-0-0-000---------4-4-444-5-5-555-----------|

Chorus:
e|---------------------------------------------------------------------------|
B|---------------------------------------------------------------------------|
G|-9-9-999-6-6-666-----------------9-9-999-6-6-666---------------------------|
D|-9-9-999-6-6-666-7-7-777-9-9-999-9-9-999-6-6-666-7-7-777-9-9-999-----------|
A|-7-7-777-4-4-444-7-7-777-9-9-999-7-7-777-4-4-444-7-7-777-9-9-999-----------|
E|-----------------5-5-555-7-7-777-----------------5-5-555-7-7-777-----------|

Interlude:
e|---------------------------------------------------------------------------|
B|---------------------------------------------------------------------------|
G|---------------------------------------------------------------------------|
D|-7-9-11-7-9-9-9999---------------------------------------------------------|
A|-7-9-11-7-9-9-9999---------------------------------------------------------|
E|-5-7-9--5-7-7-7777---------------------------------------------------------|


Solo:
[ Tab from: http://www.guitaretab.com/g/green-day/7459.html ]
e|---------------------------------------------------------------------------|
B|-3--3--3--3--3--3--3--3--3----77-88-77-88-1010-88-77-101010-777-8-7-8-7----|
G|-5b-5b-5b-5b-5b-5b-5b-5b-5b---77-77-77-77-7-7--77-77-7-7-7--777-7-7-7-7----|
D|---------------------------------------------------------------------------|
A|---------------------------------------------------------------------------|
E|---------------------------------------------------------------------------|

e|---------------------------------------------------------------------------|
B|-3--3--3--3--3--3--3--3--3--3--3--3--3--3--3--3----------------------------|
G|-5b-5b-5b-5b-5b-5b-5b-5b-5b-5b-5b-5b-5b-5b-5b-5b-7-6-5---------------------|
D|-------------------------------------------------------7-6-5---------------|
A|---------------------------------------------------------------------------|
E|---------------------------------------------------------------------------|

     |play x5   | 
e|-----10-10-----------------------------------------------------------------|
B|-----10-10-13--13--13--13--13--13--13--13--13------------------------------|
G|-12b------12b-12b-12b-10b-12b-10b-10b-12b-10b-10-10-10-10h12p12-----10-12-|
D|------------------------------------------------------------------12-------|
A|---------------------------------------------------------------------------|
E|---------------------------------------------------------------------------|
 
     |play x5   |
e|----10-10-10101010-13p10---------------------------------------------------|
B|----10-10-10101010-------13p10-13b-----------------------------------------|
G|-12b-----------------------------------------------------------------------|
D|---------------------------------------------------------------------------|
A|---------------------------------------------------------------------------|
E|---------------------------------------------------------------------------|

Order:
Intro
Verse (x2)
Chorus (x2)
Verse (x2)
Chorus (x4)
Interlude (x4)
Solo
Chorus (x4)

and then end on:

e----|
B----|
G-9~-|
D-9~-|
A-7~-|
E----|

Lyrics:
Verse:
I saw you standing alone
With a sad look on your face
You call him on the phone
Looks like he left you
Without a trace
Tears falling out of your eyes
He's living in a disguise
You've been feeling bad for so long
You wonder if it's right or wrong

Chorus:
Why do You Want Him?
Why Do You Want Him?

Verse:
Now many days have gone by
And you still just sit there and cry
You're feeling bad for yourself
His memory will always dwell
You're so obsessed with his love
That's why push came to shove
You've been feeling bad for so long
You wonder if it's right or wrong

Chorus:
Why Do You Want Him?
Why Do You Want Him?
Why Do You Want Him?
Why Do You Want Him?

Interlude:
You find a way out...
To throw it all the way
But you can bet...
You got something to say

[solo]

Chorus to end:
Why Do You Want Him?
Why Do You Want Him?
Why Do You Want Him?
Why Do You Want Him?
===============================================================================
Related for Why Do You Want Him tab