Song name
# A B C D E F G H I J K L M N O P Q R S T U V W X Y Z

Green Jello - Three Little Pigs tab

Help us improve GuitareTab! Take a short survey!
-----------------------------------------------------------------------------
			     Three Little Pigs - Green Jello
-----------------------------------------------------------------------------
Tabbed by:Life Is Brutal
Email:DillonTOwnz@Hotmail.com

Tuning:Standard

Intro
Each Tap lasts for 3 seconds.                        When sliding here, tap 
e|-5t8-6t9-7t10-8t11-9t12-10t13-11t14-12t15-13t16-13\ Down the Fret board
B|----------------------------------------------------------------
G|---------------------------------------------------------------
D|---------------------------------------------------------------
A|---------------------------------------------------------------
E|---------------------------------------------------------------

Main Riff
e|--------------------------|-----------------------------
B|--------------------------|-----------------------------
G|--------5---5--6--5-----5-|--------5---5--6--5-----ph5--
D|--4--7--5---5--6--5--7--5-|--4--7--5---5--6--5--7--ph5-- X14
A|--4--7---------------7----|--4--7---------------7-------
E|--------------------------|-----------------------------

Chorus
|--------------------------|--------------------------|
|--------------------------|--------------------------|
|--------------------------|--------------------------|
|--------------------------|--------------------------|
|--4--4--4--4--4--4--4--4--|--4--4--4--4--4--4--4--4--|
|--2--2--2--2--2--2--2--2--|--2--2--2--2--2--2--2--2--|

|--------------------------|--------------------------|
|--------------------------|--------------------------|
|--------------------------|--------------------------|
|--------------------------|--------------------------|
|--5--5--5--5--5--5--5--5--|--5--5--5--5--5--5--5--5--|
|--3--3--3--3--3--3--3--3--|--3--3--3--3--3--3--3--3--|
               
|--------------------------|--------------------------|
|--------------------------|--------------------------|
|--------------------------|--------------------------|
|--------------------------|--------------------------|
|--6--6--6--6--6--6--6--6--|--6--6--6--6--6--6--6--6--|
|--4--4--4--4--4--4--4--4--|--4--4--4--4--4--4--4--4--|
       
|--------------------------|----------------------------------||
|--------------------------|----------------------------------||
|--------------------------|----------------------------------||
|--------------------------|----------------------------------||
|--7--7--7--7--8--8--8--8--|--9----10----11-------------------||
|--5--5--5--5--6--6--6--6--|--7----8------9-------------------||

For this part after the Huffin and Puffin part, 
Change the pickups, use your distortion pedal, wah pedal, 
or Just use Pinch Harmonics on all the notes.
e|--------------------------|---------------------------|
B|--------------------------|---------------------------|
G|--------5---5--6--5-----5-|--------5---5--6--5-----5--|
D|--4--7--5---5--6--5--7--5-|--4--7--5---5--6--5--7--5--|
A|--4--7---------------7----|--4--7---------------7-----|
E|--------------------------|---------------------------|
This is the basic lay out for the song, and if you repeat it 
for all parts of the song it should sound great,
as long as you use a different type of distortion for each end.

| ph pinch harmonic
| /  slide up
| \  slide down
| h  hammer-on
| p  pull-off
| ~  vibrato
| +  harmonic
| x  Mute note
=============================================================================
Related for Three Little Pigs tab