Song name
# A B C D E F G H I J K L M N O P Q R S T U V W X Y Z

Green Jelly - Chewbacca tab

green jelly
Chewbacca, What A Wookie

tune your guitar to this D#       * = mute
                         G#       / = slide
                         F#
                         C#
                         A#
                         D#


(0:29-0:46)

D# -------------------------------------------------|
G# -------------------------------------------------|
F# -4-----5--4--5---7------/5--4-----4--3-----------|
C# ----------------------------------------6--5-----|
A# -------------------------------------------------|
D# -------------------------------------------------|


(0:47-1:21)  Allways play muted part 3 times after the nonmuted part

D# --------------------------------------------|
G# --------------------------------------------|
F# --------------------------------------------|
C# -5---5/-4/-7--/-3---5--5--5-4-5-7--7-3--3---|       X3
A# -5---5/-4/-7--/-3---5--5--5-4-5-7--7-3--3---|
D# -3---3/-2/-5--/-1---5--5--5-4-5-7--7-3--3---|
                       *  *  * * * *  * *  *

(1:22-1:29)


D# --------------------|
G# --------------------|
F# --------------------|
C# -5---5--4--7---3----|
A# -5---5--4--7---3----|
D# -3---3--2--5---1----|


(1:30-1:39)


D# -----------------                         D# ----|
G# -----------------                         G# ----|
F# -----------------            (end on)     F# ----|
C# -5--4--7---3-----       X4                C# -5--| (DO NOT let ring)
A# -5--4--7---3-----                         A# -5--|
D# -3--2--5---1-----                         D# -3--|
Tap to rate this tab
# A B C D E F G H I J K L M N O P Q R S T U V W X Y Z