Song name
# A B C D E F G H I J K L M N O P Q R S T U V W X Y Z

Green Jelly - Jerk tab

band: green jelly
song: jerk

tabber: John Cukras
Aim: will sodomise

tuning: normal

riff 1:
E-------------------|
B-------------------|
G-------------------|
D-------------------|
A-55-5/8-8888-------|
E-33-3/6-6666 x's 8-|

Riff 2:
E-------------------------------|
B-------------------------------|
G-------------------------------|
D-------------------------------|
A----5----8(7)--------5555-8888-|
E-33-3-66-6(5) x's 7--3333-6666-|
pm..   ..

Riff 1 x's 12

Riff 2

Riff 1 x's 8

Riff 3: Under solo
E-----------------------------------|
B-----------------------------------|
G-----------------------------------|
D-----------------------------------|
A-5555555-888888-101010-------------|
E-3333333-666666-888888-00000 x's 2-|
pm                      .....

Over riff 3:
---------------------------------------------------------------------------------15-14-12-15-14-12-15-14-12-15--|
------------------------------------------------------------------9^-9-11-12-13---------------------------------|
------------------------------------------------------------9-12~-----------------------------------------------|
--11-12^-11-10-9-10---------------------------------9-11-12-----------------------------------------------------|
---------------------7-8-7-5---------5-6-7--9-11-12-------------------------------------------------------------|
------------------------------3-4-5-----------------------------------------------------------------------------|

Riff 2

Riff 1 x's 16
Tap to rate this tab
# A B C D E F G H I J K L M N O P Q R S T U V W X Y Z