Song name
# A B C D E F G H I J K L M N O P Q R S T U V W X Y Z

Green Jelly - Electric Harley House Of Love tab

This is the basic gallop sound part
Palm mute em all
--------------------------------------|
--------------------------------------|
--------------------------------------|
--------------------------------------|
--------------------------------------|
-0--0-0-0--0-0-0--0-0-0--0-0-0--0-0-0-|


ELECTRIC! Riff...
electric harley house of love!
-----------------------------|
-----------------------------|
-9--9-----------------7--9---|
-9--9----10-x---9-----7--9---|
-7--7----10-x---9-----5--7---|
----------8-x---7------------|


Interlude Riff That Sounds Like Metallica:
PM Low E's
-------------------------------------------|
-------------------------------------------|
-------------------------------------------|
-------------------------------------------|
-2-7------2-7------2-7-------5---5---4-5---|
-0---7-6--0---7-6--0---7-6-0-3-0-3-0-2-3-0-|


I know these are pretty basic but I just woke up and
it's better than the tab I already saw on here which
was just the interlude riff...
Tap to rate this tab
# A B C D E F G H I J K L M N O P Q R S T U V W X Y Z