Song name
# A B C D E F G H I J K L M N O P Q R S T U V W X Y Z

Green Jelly - The Bear Song tab

Help us improve GuitareTab! Take a short survey!
Green Jelly
The bear song
Tabbed by Mark (broken_guitar_player@hotmail.com)
                                     
e----------------------------------------------------------------------------
B- --------------------------------------------------------------------------
G----------------------------------------------------------------------------
D----------------------------------------------------------------------------
A--------------------3--3--------------5----5---------------3-----3----------
E--0---0----3---5-----------0---3---5-----------0---3---5--------------5---3- repeats all through song
          
Intro

e-------------------------------------------------------------
B-------------------------------------------------------------
G-------------------------------------------------------------
D-------------------------------------------------------------
A---2-----2----2------2------2--------2------2------2-------2-
E---0-----0----0------0------0--------0------0------0-------0-
          Distortion pedal on                  Pedal off


Different way to do it
e----------------------------------------------------------------------------------
B----------------------------------------------------------------------------------
G----------------------------------------------------------------------------------
D-----------------5--5-------------------7----7--------------------5----5----------
A-2--2---5--7--7--------2--2---5---7--7----------2--2--5---7----7------------5--3--
E----------------------------------------------------------------------------------
Related for The Bear Song tab