Song name
# A B C D E F G H I J K L M N O P Q R S T U V W X Y Z

Green Jelly - Rock N Roll Pumpkihn tab

Band: Green Jelly
Song: Rock N Roll Pumpkihn

Tabber: John Cukras
Email: riffreaper@yahoo.com

Tuning: normal

Riff 1: () - either or works, two long notes or five fast ones.
E-----------------------------
B-----------------------------
G-----------------------------
D-99(999)-55555---------------
A-77(777)-33333--99(999)-55555
E----------------77(777)-33333  x's 14

Riff 2:
E----------------------------
B----------------------------
G----------------------------
D-99(999)-55555--------------
A-77(777)-33333-99(999)-55555
E---------------77(777)-33333  x's 5
pm....... ..... ....... .....

Riff 1 x's 9
Tap to rate this tab
# A B C D E F G H I J K L M N O P Q R S T U V W X Y Z