Song name
# A B C D E F G H I J K L M N O P Q R S T U V W X Y Z

Green Light Go - Why Stand Outside When You Can Be In Here With Me tab

Song: Why Stand Outside When You Can Be In Here With Me
Band: Green Light Go!!
Tuning: Standard

e|-------------------------------------------------------------------------|
B|1--------1--------1--------1---------------------------------------------|
G|------------------2--------2---------------------------------------------|
D|2-(x6)-----(x6)---2-(x6)---3-(x6)----------------------------------------|
A|3--------2---------------------------------------------------------------|
E|---------3---------------------------------------------------------------|

This is basically repeated throughout the whole song, and then a short breakdown of 
strummed chords:

e|-------------------------------------------------------------------------|
B|1--------1--------1--------1--------1--------1--------1--------1---------|
G|------------------2--------2--------------------------2--------2---------|
D|2-----------------2--------3--------2-----------------2--------3---------|
A|3--------2--------------------------3--------2---------------------------|
E|---------3-----------------------------------3---------------------------|

The first part is repeated again after the breakdown.

Website: www.myspace.com/greenlightgocitrus
Tap to rate this tab
 
# A B C D E F G H I J K L M N O P Q R S T U V W X Y Z