Song name
# A B C D E F G H I J K L M N O P Q R S T U V W X Y Z

Green River Ordinance - Everything You Are tab

INTRODUCTION, VERSES, & CHORUS

E||-----------------------------|-----------------------------|
B||--------0h2-----------0h2----|--------0h2-----------0h2----|
G||-----------------------------|-----------------------------|
D||-----------------------------|-----------------------------|
A||-----------------------------|-----------------------------|
E||--1--1--1-1-----1--1--1-1----|--1--1--1-1-----1--1--1-1----|


E||-----------------------------|-----------------------------|
B||--------0h2-----------0h2----|--------0h2-----------0h2----|
G||-----------------------------|-----------------------------|
D||-----------------------------|-----------------------------|
A||--1--1--1-1-----1--1--1-1----|--1--1--1-1-----1--1--1-1----|
E||-----------------------------|-----------------------------|


E||-----------------------------|-----------------------------|
B||--------0h2-----------0h2----|--------0h2-----------0h2----|
G||-----------------------------|-----------------------------|
D||-----------------------------|-----------------------------|
A||-----------------------------|-----------------------------|
E||--3--3--3-3-----3--3--3-3----|--3--3--3-3-----3--3--3-3----|


E||-----------------------------|-----------------------------|
B||--------0h2-----------0h2----|--------0h2-----------0h2----|
G||-----------------------------|-----------------------------|
D||-----------------------------|-----------------------------|
A||--1--1--1-1-----1--1--1-1----|--1--1--1-1-----1--1--1-1----|
E||-----------------------------|-----------------------------|



VIOLIN SOLO/OUTRO  (X3)

E||-----------------------------|-----------------------------|
B||-----------------------------|-----------------------------|
G||------5---7--------5---7-----|-----------------------------|
D||---5-----------5-------------|-----------------------------|
A||-----------------------------|---3-----1-----0-------------|
E||-----------------------------|-----------------------------|

E||-----------------------------|-----------------------------|
B||-----------------------------|-----------------------------|
G||------5---7--------5---5-----|-----------------------------|
D||---5-----------5-------------|-----------------------------|
A||-----------------------------|---3-----1-----0-------------|
E||-----------------------------|-----------------------------|

E||-----------------------------|-----------------------------|
B||-----------------------------|-----------------------------|
G||------5---5--------5---5-----|-----------------------------|
D||---5-----------5-------------|-----------------------------|
A||-----------------------------|---3-----1-----0-------------|
E||-----------------------------|-----------------------------|

E||-----------------------------|-----------------------------|
B||-----------------------------|-----------------------------|
G||------5---7--------5---5~----|-----------------------------|
D||---5-----------5-------------|-----------------------------|
A||-----------------------------|-----------------------------|
E||-----------------------------|-----------------------------|
Tap to rate this tab
# A B C D E F G H I J K L M N O P Q R S T U V W X Y Z