Song name
# A B C D E F G H I J K L M N O P Q R S T U V W X Y Z

Green River Ordinance - Heart Of Me tab

-----------------------------------------------------------------------------
                             Heart of Me - Green River Ordinance
-----------------------------------------------------------------------------
Tabbed by: R. C. D
E-mail: roody.poo118@gmail.com

Tuning: Drop D

intro
e|----------------------------------------------------------------|
B|----------------------------------------------------------------|
G|----------------------------------------------------------------|
D|----------------------------------------------------------------|
A|5555------------------------------------------------------------|
D|-----7~~~99-9-9~-7-7--4--2--4-2-4~~7------4-2-------------------|

e|----------------------------------------------------------------|
B|----------------------------------------------------------------|
G|----------------------------------------------------------------|
D|----------------------------------------------------------------|
A|----------------------------------------------------------------|
D|-----7~~~99-9-9~-7-7--4--2--4-2-4~~7------4-2-------------------|

Mid Verse: "Shadow...."
e|-----------------------------------------------------------------------|
B|-----------------------------------------------------------------------|
G|-----------------------------------------------------------------------|
D|-----------------------------------------------------------------------|
A|-----------------------------5555--------------------------------------|
D|4-2--7~~99-9-9~-7-7--4--2--4-------7~99-9-9~-7-7-4--2--4-2-4~~7---4-2--|

Pre Chorus: "Oh I feel her..."
e|---------------------------------------------------------------------|
B|---------------------------------------------------------------------|
G|---------------------------------------------------------------------|
D|--4----12----7---2---------------------------------------------------|
A|--4----12----7---2---------------------------------------------------|
D|--4----12----7---2---------------------------------------------------|

Chorus Guitar 1:
e|-----------------------------------------------------------------|
B|--12~~~~~~~~~----------------------------------------------------|
G|--11~~~~~~~~~----------------------------------------------------|
D|--9~~~~~~~~~~~---------------------------------------------------|
A|--9~~~~~~~~~-----------------------------------------------------|
D|--9~~~~~~~~~-----------------------------------------------------|

Chorus Guitar 2
  "You know need her, I can't take it any longer
e|-------------------------------------------------------------------|
B|-------------------------------------------------------------------|
G|-------------------------------------------------------------------|
D|--4------------------------------------12----7---------------------|
A|--4------------------------------------12----7---------------------|
D|--4------------------------------------12----7---------------------|

Chorus Guitar 2
   "I'm with out her but it's clear that she belongs here"
e|--------------------------------------------------------------------|
B|--------------------------------------------------------------------|
G|--------------------------------------------------------------------|
D|---------------------------------------------2----------------------|
A|---------------------------------------------2----------------------|
D|---------------------------------------------2----------------------|

Chorus Guitar 2
  "From the start you know that I was in too deep
e|-------------------------------------------------------------------|
B|-------------------------------------------------------------------|
G|-------------------------------------------------------------------|
D|--4------------------------------------12----7---------------------|
A|--4------------------------------------12----7---------------------|
D|--4------------------------------------12----7---------------------|

Chorus Guitar 2
   "This love is moving to the heart of me"
e|--------------------------------------------------------------------|
B|--------------------------------------------------------------------|
G|--------------------------------------------------------------------|
D|---------------------------------------------2----------------------|
A|---------------------------------------------2----------------------|
D|---------------------------------------------2----------------------|
Tap to rate this tab
# A B C D E F G H I J K L M N O P Q R S T U V W X Y Z