Guitaretab - guitar tabs
Song name
# A B C D E F G H I J K L M N O P Q R S T U V W X Y Z

Green River - Aint Nothing To Do tab

This is one of Green River's more punk-ish songs. It's in standard tuning (EADGBe),
and it doesn't use capos or anything. I'm pretty confident about the powerchords,
but the solo's a little odd.
If you have any questions, comments, corrections, etc., feel free to contact me at
erin90@adelphia.net. Or you could just commend my for my work if you liked it.

Intro

e------------------|
B------------------|
G-9-9-9-x-x-x-x----|
D-9-9-9-x-x-x-x----|
A-7-7-7-x-x-x-x----|
E------------------|  4x

Chorus Pt I

e----------------|
B----------------|
G-9-9-9---5-5-5--|
D-9-9-9---5-5-5--|
A-7-7-7---3-3-3--|
E----------------| 2x

Chorus Pt II

e---------------------------|
B---------------------------|
G-3-3-3-3-5-5-7-9-9---------|
D-3-3-3-3-5-5-7-9-9---------|
A-1-1-1-1-3-3-5-7-7---------|
E---------------------------| 2x

After that, repeat the intro a few times, then the chorus pt I 2x, then chorus pt II 2x.

Iím just going to call this THE POST-CHORUS.
[ Tab from: http://www.guitaretab.com/g/green-river/66283.html ]
e-----------------------------------------------|
B-----------------------------------------------|
G-5-x-x-x--7/-11-10-10-------5-5-11-11-11-8-----|
D-5-x-x-x--7/-11-10-10-------5-5-11-11-11-8-----|
A-3-x-x-x--5/-9--8--8--------3-3-9--9--9--6-----|
E-----------------------------------------------|       play x2

Intro x4 thenÖ

Solo

e---------------------|---------------------------------|
B-12-12-12-12-7-7-7-7-|-5-3-1-3-5-3--/7-/9-/12-12-12----|
G---------------------|---------------------------------|
D---------------------|---------------------------------|
A---------------------|---------------------------------|
E---------------------|---------------------------------|

        x2

Afterwards, play the post-chorus twice, then the intro a few times.


Ending, during the ďAINíT NOTHINí..."

e---------------------------------------|
B---------------------------------------|
G-7-7-7-9-9-9-11------------------------|
D-7-7-7-9-9-9-11------------------------|
A-5-5-5-7-7-7-9-------------------------|
E---------------------------------------|

go nuts with it.
Related for Aint Nothing To Do tab