Song name
# A B C D E F G H I J K L M N O P Q R S T U V W X Y Z

Green River - Ozzie tab

Tabbed by: Kurtrip
if you have comments or request
Email: magicrulez77@hotmail.com

Tuning: Normal
Used Chords
A5 A#5 C5    E5 F5  G5
------------------------------|
------------------------------|
-------------9--10--12--------|
-7--8--10----9--10--12--------|
-7--8--10----7--8---10--------|
-5--6--8----------------------|
/=slide
h=hammer on
p=pull of
Intro
---------------------------|
------------8--------------|
----9---10----10--9h10p9---|
-77---7---7--7--7----------|
---------------------------|
---------------------------|
Riff 2 (played on A string)
--4444-3333-2222-111-0-----
Riff 3
A5     A#5 / C5
Riff 4
E5      F5 / G5
(Riff 2 & 3 use same rythm, figure it out, it aint hard)

Riff 5                Alternative Riff 5 (used later in the song)
---------------|-------------------------------|
---------------|-------------------------------|
---------------|-------------------------------|
----7*-6-5-----|----------7-6-5-----7-6~-------|
-55------------|-------55--------55------------|
---------------|-------------------------------|
*After playing riff 4 a few times cut of after the 7* and go back to riff 1 and go down 
the riffs again
Tap to rate this tab
# A B C D E F G H I J K L M N O P Q R S T U V W X Y Z