Song name
# A B C D E F G H I J K L M N O P Q R S T U V W X Y Z

Green River - New God tab

Help us improve GuitareTab! Take a short survey!
My favourite song off of Come on Down. this is how i play anyways.

Intro: (using a Boss Ph-3 on 12 cycle to make a fast pulsing sound adds great atmosphere)
e:-----------------------------|-------------------------------||
b:-----------------------------|-------------------------------||
g:-----------------------------|-------------------------------||
d:--------2---------2-3-2------|--------3-----------3-4-3------|| X2
a:----2----------2---------2---|----3-----------3----------3---||
E:0-----------0--------------0-|1-----------1----------------1-||

Verse:
Stomp on the distortion!

e:----------------------------|----------------------------||
b:----------------------------|----------------------------||
g:----------------------------|----------------------------||
d:2--2-2--2--2-2--2--2-2-3-3-3|3--3-3--3--3-3--3--3-3-4-4-4||X8
a:2--2-2--2--2-2--2--2-2-3-3-3|3--3-3--3--3-3--3--3-3-4-4-4||
E:0--0-0--0--0-0--0--0-0-1-1-1|1--1-1--1--1-1--1--1-1-2-2-2||

Chorus-ish:
e:----------------/---------------/-------------------------------||
b:----------------/---------------/-------------------------------||
g:----------------/---------------/-------------------------------||
d:9-9-9-9-9-101010/6-6-6-6-6-7-7-7/3-3-3-3-3-3-3-3-3-3-3-3-3-4-4-4||X4
a:9-9-9-9-9-101010/6-6-6-6-6-7-7-7/3-3-3-3-3-3-3-3-3-3-3-3-3-4-4-4||
E:7-7-7-7-7-8-8-8-/4-4-4-4-4-5-5-5/1-1-1-1-1-1-1-1-1-1-1-1-1-2-2-2||
                                 PM......................

Post-Chorus-ish:
e:--------------------------------------------------------------------------|
b:--------------------------------------------------------------------------|
g:7-7-7-------------8-8-8-------------9-9-9-------------10101010101010101010|
d:7-7-7-6-6-6-6-6-6-8-8-8-7-7-7-7-7-7-9-9-9-8-8-8-8-8-8-10101010101010101010|
a:5-5-5-6-6-6-6-6-6-6-6-6-7-7-7-7-7-7-7-7-7-8-8-8-8-8-8-8-8-8-8-8-8-8-8-8-8-|
E:------4-4-4-4-4-4-------5-5-5-5-5-5-------6-6-6-6-6-6---------------------|

e:----------------------------||
b:----------------------------||
g:----------------------------||
d:2---------------------------||
a:2---------------------------||
E:0---------------------------||
Proper heavy strum

Let It die down again, then repeat once more from the verse.

If you dont know the song, go buy it, its great, or go to 
to hear the way I play it.
Related for New God tab