Guitaretab - guitar tabs
Song name
# A B C D E F G H I J K L M N O P Q R S T U V W X Y Z

Greenbaum Norman - Spirit In The Sky tab

Based on Daniel C B's Tab, but using chords that would more than
likely have been used on the actual song. The chords in parentheses
are muted, sounds better on accoustic than releasing. Play the ones
in parentheses a bit faster, I am not so sure, don't have my guitar with
me so I can't check it out.

Naturally, this is a just a guide/example, kinda how I play it, it's all
about feeling. Also, this is my first tab, it's probably inaccurate
in a number of ways, just use your common sense.
[ Tab from: http://www.guitaretab.com/g/greenbaum-norman/7349.html ]
Intro:
e|------------------------------------------------------------------2-|
B|--------(2)-(2)-(2)-------3---------------(2)-(2)-(2)-----------3-3-|
G|--------(2)-(2)-(2)-2-----2-0---0---------(2)-(2)-(2)-2-----0-0-2-2-|
D|-----2--(2)-(2)-(2)-2-2---0-0-2-2------2--(2)-(2)-(2)-2-2---2-0-0-0-| x2
A|--2--0--(0)-(0)-(0)-0-0-2-----3-3---2--0--(0)-(0)-(0)-0-0-2-3-------|
E|--3---------------------0-----------3---------------------0---------|

Verse:
      Play 3 x.     |  Play 2x   |
e|------------------|------------|----------------------------|
B|------------------|---3--------|----------------------------|
G|-----(2)-(2)-2-2-o|---2-2-(2)-o|------(2)-(2)-2-0---------0-|
D|---2-(2)-(2)-2-2-o|-2-0-0-(0)-o|----2-(2)-(2)-2-2---2-2---2-|
A|---0-(0)-(0)-0-0--|-3----------|-2--0-(0)-(0)-0-3-2-2-2-2-2-|
E|-3----------------|------------|-3----------------0-0-0-0-0-|

Fill 1:
            Let the last A ring.
e|-----------0-|
B|-----------2-|
G|-----------2-|
D|-0-2-2-2-2-2-|
A|-2-0-0-0-0-0-|
E|-3-----------|

You can also play just the tops and slap the strings to mute, either with
a distortion guitar, or a bass.

G|---------------------------|
D|-------------------0-------| Etc...
A|-----0-0-0-0-0-(2)---3-(3)-|
E|-(3)-----------------------|

Cheers,
Jason Knight