Song name
# A B C D E F G H I J K L M N O P Q R S T U V W X Y Z

Greenbrier Lane - Christmastime In The 909 tab

I heard this song awhile back and loved it but saw no tab for it so heres my
version of the tab,enjoy

Tuning: Standard

~=let ring
p=pull off
/=slide
..=palm mute


Intro:
e|-----------------------------------|
B|-----------------------------------|
G|-5~----5~----5~----5~--------------|
D|-5~----5~----5~----5~--------------|
A|-3~----3~----3~----3~--------------|
E|---------------------pickslide>>>>-|
A bunch of bells and trumpets are in the background at this part to but this is the guitar

Verse 1
e|----------------------------------------------------|
B|----------------------------------------------------|
G|-55555-------55555-------55555-------------55555----|
D|-55555-33333-55555-55555-55555-33333-55555-55555----|x2
A|-33333-33333-33333-55555-33333-33333-55555-33333----|
E|-------11111-------33333-------11111-33333----------|

Bridge 1
e|----------------------|
B|----------------------|
G|-5~-------10-9-7-5----|
D|-5~-pause--x-x-x-X----|
A|-3~--------8-7-5-3----|
E|----------------------|
             ^bells tabbed for guitar
Verse 2
e|----------------------------------------------------|
B|----------------------------------------------------|
G|-55555-------55555-------55555-------------55555----|
D|-55555-33333-55555-55555-55555-33333-55555-55555----|x2
A|-33333-33333-33333-55555-33333-33333-55555-33333----|
E|-------11111-------33333-------11111-33333----------|

Chorus

e|--------------------------------------------------------|
B|--------------------------------------------------------|
G|-555555555555-------------555555555555------------------|
D|-555555555555-33-33-33-33-555555555555-33-33-33-33------|
A|-333333333333-33-33-33-33-333333333333-33-33-33-33------|
E|--------------11-11-11-11------------- 11-11-11-11------|
                .. .. .. ..              .. .. .. ..

e|-------------------------------------------------------------|
B|-------------------------------------------------------------|
G|-555555--------555555--------555555--------555555------------|
D|-555555-333333-555555-333333-555555-333333-555555-333333-----|
A|-333333-333333-333333-333333-333333-333333-333333-333333-----|
E|--------111111--------111111--------111111--------111111-----|

Bridge 2
e|------------------------------------------|
B|------------------------------------------|
G|------------------------------------------|
D|-7~/--3~/--7~/--3~/--7~/--3~/--7~/--3~///-|
A|-7~/--3~/--7~/--3~/--7~/--3~/--7~/--3~///-|
E|-5~/--1~/--5~/--1~/--5~/--1~/--5~/--1~///-|

Solo
e|----------------------------------------------------------------------------|
B|----------------------------------------------------------------------------|
G|----------------------------------------------------------------------------|
D|-2-2-3-2--------2-2-3-2-3-5-3-2-2p3p2p3p2p3p2p3p0-2-2-3-2--------0-2-0-2-0~-|
A|--------3-33333-------------------------------------------3-33333-----------|
E|----------------------------------------------------------------------------|
            .....                                             .....
Chorus 2
e|----------------------------------------------------------|
B|----------------------------------------------------------|
G|-777777777777---------------777777777777------------------|
D|-777777777777-55-55-55-55---777777777777-55-55-55-55------|
A|-555555555555-55-55-55-55---555555555555-55-55-55-55------|
E|--------------33-33-33-33----------------33-33-33-33------|
                .. .. .. ..                .. .. .. ..

e|-------------------------------------------------------------|
B|-------------------------------------------------------------|
G|-777777--------777777--------777777--------777777------------|
D|-777777-555555-777777-555555-777777-555555-777777-555555-----|
A|-555555-555555-555555-555555-555555-555555-555555-555555-----|
E|--------333333--------333333--------333333--------333333-----|

Outro
e|----------------------------------------------------------------------------|
B|----------------------------------------------------------------------------|
G|-777777777777-------------777777777777-------------777777777777-------------|
D|-777777777777-55-55-55-55-777777777777-55-55-55-55-777777777777-55-55-55-55-|
A|-555555555555-55-55-55-55-555555555555-55-55-55-55-555555555555-55-55-55-55-|
E|--------------33-33-33-33--------------33-33-33-33--------------33-33-33-33-|
                .. .. .. ..              .. .. .. ..              .. .. .. ..

e|----------------------------------------------|
B|----------------------------------------------|
G|-777777777777--------------777777777777-7-----|
D|-777777777777-777777777777-777777777777-7-end-|
A|-555555555555-777777777777-555555555555-5-----|
E|--------------555555555555--------------------|

theres some bells playing here too but i have no tab for it sorry

well thats it a pretty easy song...if you have any questions email me at
bluenova_350@hotmail.com,and if you like this song check out the band here
http://www.myspace.com/greenbrierlane or here http://www.greenbrierlane.com/
Tap to rate this tab
 
# A B C D E F G H I J K L M N O P Q R S T U V W X Y Z