Song name
# A B C D E F G H I J K L M N O P Q R S T U V W X Y Z

Greenskeepers - Polo Club tab

The intro (and chorus) chords:

A B A B A E B A 
A A G G G

verse tab:

e|--------------------------------------------------------------------------|
B|--------------------------------------------------------------------------|
G|--------------------------------------------------------------------------|
D|--------------------------------------------------------------------------|
A|----------------5-5-6-6-7-7--------------------5-5-6-6-7-7----------------|
E|-5-5-6-6-7-7--------------------5-5-6-6-7-7-------------------------------|

e|----------------------------------------------------------------------------|
B|----------------------------------------------------------------------------|
G|----------------------------------------------------------------------------|
D|----------------------------------------------------------------------------|
A|------------------------5-5-6-6-7777777567------------------------5-5-6-6---|
E-5-5-6-6-7777777567-------------------------5-5-6-6-7777777567---------------|

e|--------------------------------------------------------------------------|
B|--------------------------------------------------------------------------|
G|--------------------------------------------------------------------------|
D|--------------------------------------------------------------------------|
A|7777777567----------------------------------------------------------------|
E|--------------------------------------------------------------------------|



"we love the polo club"
e|----------------------------------------------------------------------------|
B|----------------------------------------------------------------------------|
G|----------------------------------------------------------------------------|
D|----------------------------------------------------------------------------|
A|----------------------------------------------------------------------------|
E|---7777777777777777777777777777777777777777777777777777777------------------|
Tap to rate this tab
 
# A B C D E F G H I J K L M N O P Q R S T U V W X Y Z