Song name
# A B C D E F G H I J K L M N O P Q R S T U V W X Y Z

Greenwheel - Breathe tab

Greenwheel
Breathe
Tabbed by George Goussack (a.k.a. gilza) from The Russian Federation
That's pretty easy to play... ;-)))

Verse:
e|-----------------------------------------------------------------|
B|-----------------------------------------------------------------|
G|-----------------------------------------------------------------|
D|--8-8-8--6-6-6--8-8-8--4-4--3-3--8-8-8--6-6-6--8-8-8--4-4-4-4----|
A|--8-8-8--6-6-6--8-8-8--4-4--3-3--8-8-8--6-6-6--8-8-8--4-4-4-4----|
E|--6-6-6--4-4-4--6-6-6--2-2--1-3--6-6-6--4-4-4--6-6-6--2-2-2-2----|

Chorus:
e|-----------------------------------------|
B|-----------------------------------------|
G|--6-6-6---------8-8-8--------------------|
D|--6-6-6--6-6-6--8-8-8--4-4-4--6-6-6------|
A|--4-4-4--6-6-6--6-6-6--4-4-4--6-6-6------|
E|---------4-4-4---------2-2-2--4-4-4------|

Verse
Chorus x2

Bridge:
e|-----------------------------------------------------------|
B|-----------------------------------------------------------|
G|---------8-8-8----------------8-8-8------------------------|
D|--8-8-8--8-8-8--6-6-6--8-8-8--8-8-8--6-6-6--4-4-4--6-6-6---|
A|--8-8-8--6-6-6--6-6-6--8-8-8--6-6-6--6-6-6--4-4-4--6-6-6---|
E|--6-6-6---------4-4-4--6-6-6---------4-4-4--2-2-2--4-4-4---|

Verse
Chorus (x2)
Chorus/Solo (x4)
Tap to rate this tab
# A B C D E F G H I J K L M N O P Q R S T U V W X Y Z