Guitaretab - guitar tabs
Song name
# A B C D E F G H I J K L M N O P Q R S T U V W X Y Z

Greenwheel - Shelter tab

Song: Shelter
Artist: Greenwheel
CD: Soma Holiday
Lyrics: Greenwheel
Music: Greenwheel
Label: Island Records
Year: 2002
----------------------------------
Tabbed and Submitted by Troy Garcia

This is 100% correct.  This is a simple but great song to learn to play.  Notes
about the signs used are at the bottom.  For all you Greenwheel fans, I hope you
enjoy!

Tuning: Drop D (low to high) D-A-D-G-B-E

Intro:
	Part 1

Gtr.1 (dist.) w/ envelope filter
|-----------------5---5-----------|---------------------------------|
|-------------------------8---8---|-8-------------------------------|
|-7---7---7-----------------------|-----5---5---5---4---4-----------|
|-------------7-------------------|-------------------------5---5---|
|---------------------------------|---------------------------------|
|---------------------------------|---------------------------------|

Gtr.2 (dist.)
|---------------------------------|---------------------------------|
|-10--10--10--10--10--10--10--10--|-8---8---8---8---8---8---8---8---|
|--9---9---9---9---9---9---9---9--|-9---9---9---9---9---9---9---9---|
|--7---7---7---7---7---7---7---7--|-7---7---7---7---7---7---7---7---|
|--0---0---0---0---0---0---0---0--|-0---0---0---0---0---0---0---0---|
|---------------------------------|---------------------------------|

	Part 2

Gtr.1 (dist.) w/ envelope filter
|---------------------------------|---------------------------------|
|---------------------------------|---------------------------------|
|---------------------------------|---------------------------------|
|-7----7--7----7--7--7------------|-12----12--12----12--12--12------|
|-7----7--7----7--7--7------------|-12----12--12----12--12--12------|
|-7----7--7----7--7--7------------|-12----12--12----12--12--12------|

|---------------------------------|---------------------------------|
|---------------------------------|---------------------------------|
|---------------------------------|---------------------------------|
|-5----5--5----5--5--5------------|-0---------------2---------------|
|-5----5--5----5--5--5------------|-0---------------2---------------|
|-5----5--5----5--5--5------------|-0---------------2---------------|

Gtr.2 (dist.)
Riff A
|-8----8--7----7--7--7------------|-5----5--7----7------7-----------|
|-x----x--x----x--x--x------------|-x----x--x----x------x-----------|
|-5----5--4----4--4--4------------|-2----2--4----4------4-----------|
|---------------------------------|---------------------------------|
|---------------------------------|---------------------------------|
|---------------------------------|---------------------------------|


|-8----8--7----7------7-----------|-5-------------------------------|
|-x----x--x----x------x-----------|-x-------------------------------|
|-5----5--4----4------4-----------|-2-------------------------------|
|---------------------------------|---------------------------------|
|---------------------------------|---------------------------------|
|---------------------------------|---------------------------------|

Verse:

Gtr.1 (dist.) w/ envelope filter
|---------------------------------|
|---------------------------------|
|---------------------------------|
|-7-------------------------------|
|-7-------------------------------|
|-7-------------------------------|

Gtr.2 (dist.) w/ delay
|-10^-----------------------------|---------------------------------|
|---------------------------------|-------------12\10---------------|
|---------------------------------|---------------------------------|
|---------------------------------|---------------------------------|
|---------------------------------|---------------------------------|
|---------------------------------|---------------------------------|

|---------------------------------|---------------------------------|
|-(10)-----------------(10)\------|---------------------------------|
|---------------------------------|---------------------------------|
|---------------------------------|---------------------------------|
|---------------------------------|---------------------------------|
|---------------------------------|---------------------------------|

Pre-Chorus:

Gtr.1 (repeat 2 times)(2nd time 4th measure, play G5 once and then rest)
|---------------------------------|---------------------------------|
|---------------------------------|---------------------------------|
|---------------------------------|---------------------------------|
|-7---7---7---7---7---------------|-12---12---12---12---12----------|
|-7---7---7---7---7---------------|-12---12---12---12---12----------|
|-7---7---7---7---7---------------|-12---12---12---12---12----------|

|---------------------------------|---------------------------------|
|---------------------------------|---------------------------------|
|---------------------------------|---------------------------------|
|-5---5---5---5---5---------------|-5---5---5---5---5---------------|
|-5---5---5---5---5---------------|-5---5---5---5---5---------------|
|-5---5---5---5---5---------------|-5---5---5---5---5---------------|

Gtr.2 (repeat 2 times) (2nd time 4th measure, play the D once and rest)
|---------------------------------|---------------------------------|
|---------------------------------|-----------P.H.------------------|
|-----------7^--------------------|-----------7^--------------------|
|-7-------7-----------------------|-5-------5-----------------------|
|---------------------------------|---------------------------------|
|---------------------------------|---------------------------------|

|---------------------------------|---------------------------------|
|---------------------------------|---------------------------------|
|-----------7^--------------------|--------------------------5------|
|-5-------5-----------------------|-5-------~~~~~---7\9-------------|
|---------------------------------|---------------------------------|
|---------------------------------|---------------------------------|
Chorus:

Gtr.1 (repeat 2 times)
|---------------------------------|---------------------------------|
|---------------------------------|---------------------------------|
|---------------------------------|---------------------------------|
|-7----7--7----7--7--7------------|-7----7--7----7--7--7------------|
|-7----7--7----7--7--7------------|-7----7-7----7--7--7------------|
|-7----7--7----7--7--7------------|-7----7--7----7--7--7------------|

|---------------------------------|---------------------------------|
|---------------------------------|---------------------------------|
|---------------------------------|---------------------------------|
|-5----5--5----5--5--5------------|-0---------------2---------------|
|-5----5--5----5--5--5------------|-0---------------2---------------|
|-5----5--5----5--5--5------------|-0---------------2---------------|

Gtr.2: w/ Riff A (2 times)

Verse:

Gtr.1
|---------------------------------|------------------------5--------|
|---------------------------------|-----------------3/5-------5-----|
|---------------------------------|---------------------------------|
|-7-------------------------------|---------------------------------|
|-7-------------------------------|---------------------------------|
|-7-------------------------------|---------------------------------|
  *         hold bend until end of "And I guess I'll keep"
|---------------------------------|
|-5^-------5----------------------|
|-7-------------------------------|
|---------------------------------|
|---------------------------------|
|---------------------------------|
[ Tab from: http://www.guitaretab.com/g/greenwheel/122151.html ]
Gtr.2
   Begins before "And indifference..."
    **-----                                           TT w/ bar
|---------------------------------|---------------------------------|
|---------------------------------|---------------(7)-(7)-(7)-------|
|---7-----------------------------|---------------------------------|
|---------------------------------|---------------------------------|
|---------------------------------|---------------------------------|
|---------------------------------|---------------------------------|

       grad. bend
|---------------------------------|---------------------------------|
|---(7)b--------------------------|---------------------------------|
|---------------------------------|---------------------------------|
|---------------------------------|---------------------------------|
|---------------------------------|---------------------------------|
|---------------------------------|---------------------------------|

Pre-Chorus:

Chorus:


Interlude:

Gtr.1
  Note: the rests (z) are crucial; you wont get the right sound if don't use
|---------------------------------|---------------------------------|
|---------------------------------|---------------------------------|
|---------------------------------|---------------------------------|
|-3---3z---3---3---3z----3--------|-5---5z---5---5---5z----5--------|
|-3---3z---3---3---3z----3--------|-5---5z---5---5---5z----5--------|
|-3---3z---3---3---3z----3--------|-5---5z---5---5---5z----5--------|

|---------------------------------|---------------------------------|
|---------------------------------|---------------------------------|
|---------------------------------|---------------------------------|
|-7---7z---7---7---7z----7--------|-7---7z---7---7---7z----7--------|
|-7---7z---7---7---7z----7--------|-7---7z---7---7---7z----7--------|
|-7---7z---7---7---7z----7--------|-7---7z---7---7---7z----7--------|

Gtr.2 w/ phase shifter
  Note: this is a hard part to hear and play along with; great sound though
|---------------------------------|---------------8------------8/10-|
|---------------------------------|-8-------8-----------8------8/10-|
|-----------------------------10--|----10---------------------------|
|---------------------------------|------------------------10-------|
|---------------------------------|---------------------------------|
|---------------------------------|---------------------------------|

|-8------8/10-----8---------------|----------8---8---8--------8-----|
|-8------8/10-----8------8--------|-8--------8---8---8---10---8-----|
|----------------------------9----|------9----------------9---------|
|---------------------------------|---------------------------------|
|---------------------------------|---------------------------------|
|---------------------------------|---------------------------------|

|-8--------8/10---8---------------|---------------8------------8/10-|
|-8---10---8/10---8---10----------|-8-------8-----------8------8/10-|
|------9---------------9------10--|----10------------------10-------|
|---------------------------------|---------------------------------|
|---------------------------------|---------------------------------|
|---------------------------------|---------------------------------|

|-8------8/10-----8---------------|---------------------------------|
|-8------8/10-----8---------------|---------------------------------|
|----------------------7/9--------|---------------------------------|
|---------------------------------|-10------------------------------|
|---------------------------------|---------------------------------|
|---------------------------------|---------------------------------|

Bridge:

Gtr.1 (slight distortion; repeat first 2 measures when Gtr.2 comes in) Gtr.2 (tacet)
|--------------0------------0-----|-----------0-------------0-------|
|-------10--------------10--------|------10------------10--------10-|
|---------------------------------|---------------------------------|
|-7------------------7------------|-10------------10----------10----|
|---------------------------------|---------------------------------|
|---------------------------------|---------------------------------|


|-----------0-------------0-------|-----------0-------------0-------|
|------10------------10--------10-|------10------------10--------10-|
|---------------------------------|---------------------------------|
|---------------------------------|---------------------------------|
|-10------------10----------10----|-10------------10----------10----|
|---------------------------------|---------------------------------|

Gtr.2
|-8-------7---8-------7-------7---|-5-------5---7-------7-------7---|
|-----5-----------5-------5-------|-----5-----------5-------5-------|
|---------------------------------|---------------------------------|
|---------------------------------|---------------------------------|
|---------------------------------|---------------------------------|
|---------------------------------|---------------------------------|

Half-time feel:

Gtr.1
|---------------------------------|---------------------------------|
|---------------------------------|---------------------------------|
|---------------------------------|---------------------------------|
|-7-------------------------------|-12------------------------------|
|-7-------------------------------|-12------------------------------|
|-7-------------------------------|-12------------------------------|

|---------------------------------|---------------------------------|
|---------------------------------|---------------------------------|
|---------------------------------|---------------------------------|
|-5-------------------------------|-0---------------2---------------|
|-5-------------------------------|-0---------------2---------------|
|-5-------------------------------|-0---------------2---------------|

Gtr.2
|-8-------7---------------8-------|-7---------------8-------7-------|
|-----------------5---------------|---------5-----------------------|
|---------------------------------|---------------------------------|
|---------------------------------|---------------------------------|
|---------------------------------|---------------------------------|
|---------------------------------|---------------------------------|

|---------8-------7---------------|-8-------7-----------------------|
|-5-----------------------5-------|---------------------5-----------|
|---------------------------------|---------------------------------|
|---------------------------------|---------------------------------|
|---------------------------------|---------------------------------|
|---------------------------------|---------------------------------|

Chorus:

Outro:

Gtr.1 (repeat 2 times)
|---------------------------------|---------------------------------|
|---------------------------------|---------------------------------|
|---------------------------------|---------------------------------|
|-7-------------------------------|-7-------------------------------|
|-7-------------------------------|-7-------------------------------|
|-7-------------------------------|-7-------------------------------|

|---------------------------------|---------------------------------|
|---------------------------------|---------------------------------|
|---------------------------------|---------------------------------|
|-5-------------------------------|-5-------------------------------|
|-5-------------------------------|-5-------------------------------|
|-5-------------------------------|-5-------------------------------|

Gtr.2
  Note: this begins when the last G5 is played
|---------------------------------|
|---------------------------------|
|--------------------------5------|
|-5--------------5----------------|
|--------------------7------------|
|---------------------------------|

Legend:
P.H. - Pinch harmonic: the note is fretted normally and a harmonic is produced by
adding the edge of the thumb or the tip of the index finger of the pick hand to
the normal pick attack.
~ - Vibrato: The string is vibrated by rapidly bending and releasing the note with
the fretting hand.
* - Unison bend: Strike the two notes simultaneously and bend the lower note up to
the pitch of the higher.
** - Vol. swell
TT: Point vibrato bar arm at lower strap button and bounce palm pick hand on bar
in specified rhythm.
^ - Bend
/ - Slide: Strike the first note and then slide the same fret-hand finger up or down
to the second note.  The second note is note struck.
Related for Shelter tab