Song name
# A B C D E F G H I J K L M N O P Q R S T U V W X Y Z

Greenwheel - Drowning Man tab

Greenwheel
Drowning Man
Tabbed by George Goussack (a.k.a. gilza) from The Russian Federation
There was nothing on this song so just check the way i play it.
If ya can't figured out how this song is played ya must be dumb.  ;-)))

Intro:
e|----------------------------------------|
B|----------------------------------------|
G|----------------------8-8-8-8-8-8~~~----| Play this 4 times
D|--8/5--5-5-x-3-3-3-x--8-8-8-8-8-8~~~----|
A|--8/5--5-5-x-3-3-3-x--6-6-6-6-6-6~~~----|
E|--6/3--3-3-x-1-1-1-x--------------------|

Verse:
e|-------------------------------------------------------------------------------|
B|-------------------------------------------------------------------------------|
G|------------------------5-5-5-x-5-x-x-8--------------------------5-5-5-x-5-----| Play this 2 times
D|--5-5-5-x-5--3-3-3-x-3--5-5-5-x-5-x-x-8----5-5-5-x-5--3-3-3-x-3--5-5-5-x-5-----|
A|--5-5-5-x-5--3-3-3-x-3--3-3-3-x-3-x-x-6----5-5-5-x-5--3-3-3-x-3--3-3-3-x-3-----|
E|--3-3-3-x-3--1-1-1-x-1---------------------3-3-3-x-3--1-1-1-x-1----------------|

Chorus:
e|----------------------------------------|
B|----------------------------------------|
G|--8-8-x---------8-8-8-x--10-10-10-------|    Play this 2 times
D|--8-8-x--8-8-x--8-8-8-x--10-10-10-------|
A|--6-6-x--8-8-x--6-6-6-x--8--8--8--------|
E|---------6-6-x--------------------------|

e|-------------------------------------------|
B|-------------------------------------------|
G|------------------------5-5-5-x-5-x-x-8-8-8| Play this 2 times
D|--5-5-5-x-5--3-3-3-x-3--5-5-5-x-5-x-x-8-8-8|
A|--5-5-5-x-5--3-3-3-x-3--3-3-3-x-3-x-x-6-6-6|
E|--3-3-3-x-3--1-1-1-x-1---------------------|

Back to Verse/Solo
Verse
Chorus
Bridge
Intro
Verse
Chorus
Tap to rate this tab
# A B C D E F G H I J K L M N O P Q R S T U V W X Y Z