Song name
# A B C D E F G H I J K L M N O P Q R S T U V W X Y Z

Greg Allman - Come And Go Blues tab

D|----------------------------------3~---------------------------------------|
B|---------3---1---1p0------3---3p1------------------------------------------|
G|-----0h2--2---2-----2-0h2--2-----------------------------------------------|X2
D|-----------0---0-----0------0----------------------------------------------|
G|-----0--0---0---0-----0--0---0---0-----------------------------------------|
D|---------------------------------------------------------------------------|


e|---------------------------------------------------------------------------|
B|---------------------------------------------------------------------------|
G|-----1p0-------------------------------------------------------------------|
D|--------3p0---3------0-0-3---0-0-3----------0-0-0--------------------------|
A|-----------3/5--------5-5-----5-5------------5-5---------------------------|
E|--------------------------------------------------3b~--------------------|



D|----------------------------------3----------------------------------------|
B|---------3---1---1p0------3---3p1------------------------------------------|
G|-----0h2--2---2-----2-0h2--2-----------------------------------------------|
D|-----------0---0-----0------0----------------------------------------------|X2
G|-----0--0---0---0-----0--0---0---0-----------------------------------------|
D|---------------------------------------------------------------------------|



e|------------------------0---------------------------12---------------------|
B|------------------------1---------------------------12---------------------|
G|--------------0---------0-----------------0---------12---------------------|
D|------3p2p0-------------3---------3p2p0-------------12---------------------|
A|-----------3p0----------0--------------3p0--------0-12---------------------|
E|---------------------------------------------------------------------------|

e|----------------------------------------------------0----------------------|
B|---------------------------6------------------------0----------------------|
G|--------------0------------5---------------0--------0----------------------|
D|------3p2p0---------------5-------3p2p0-------------0----------------------|
A|-----------3p0----------0--------------3p0----------0----------------------|
E|---------------------------------------------------------------------------|


VERSE
e|------------3---------------2----2-----------0---0-----------------------0-|
B|-----3--3-----3--3-------2----2-2-2------1----1-1-1-1p0-------11p10p8-----8|
G|-----0---0-----0---0----0-0----0---0----0-0----0---0---0-------------------0
D|-----3----3---------3--2---2-----------1---1-------------------------------|X5
A|---0---0----0----0----0-----0---0-----0------0--0---0----0----------0--0---|
E|---------------------------------------------------------------------------|



| /  slide up
| \  slide down
| h  hammer-on
| p  pull-off
| ~  vibrato
| +  harmonic
| x  Mute note
===============================================================================
Tap to rate this tab
# A B C D E F G H I J K L M N O P Q R S T U V W X Y Z