Song name
# A B C D E F G H I J K L M N O P Q R S T U V W X Y Z

Greg Graffin - Rebels Goodbye tab

Rebels Goodbye

Greg Graffin

TRANSCRIBED BY RUDY GUZMAN


guzman_84@hotmail.com




   verse                                            
e:-------------1-----------------------------------3-|
B:-------------1---6p5-3-------------3-----------3---|
G:------4------2---------5---2---5---5-5--4----4-----|
D:------5------3-----------------5---5-5--5--5-------|
A:---0--5------3-----------------3---3-3--5----------|
E:-3----3------1--------------------------3----------|

   gt1                                   
e:------5---------------------1------------------------|
B:------6---------------------1------------------------|
G:-4----7-----------------2---2--5-5---4---------------|
D:-5----7-----------------3---3--5-5---5---------------|
A:-5----5-----------------3------3-3---5---------------|
E:-3----------------------1------------3---------------|
   gt2                                   pm.........
e:----------------12~---------1------------------------|
B:------10----10--------------1------------1-1-3-1-1---|
G:-4-------12-------------2---2--5-5---4-------------2-|
D:-5----------------------3---3--5-5---5---------------|
A:-5----------------------3------3-3---5---------------|
E:-3----------------------1------------3---------------|

e:------------------------------------------------------|
B:-----8------------------------------------------------|
G:-10-------5----5----4-----10-------5----4-----------0-|
D:-10-------5--5------5-----10---7---5----5----0-2-3----|
A:-8--------3---------5-----8----5---3----5-------------|
E:--------------------3-------------------3-------------|

e:------------------------------------------------------------|
B:----------5--------1--------------------------------4-------|
G:-2--2-0---5-----2----2---4------------7-7---2-2--5----5-----|
D:-3--------5-----3--------5------------8-8---3-3--5------5---|
A:-3--------3-----3--------5----0---0---8-8---3-3--3--------3-|
E:-1--------------1--------3----3-5-6-------------------------|

e:-----------------------|
B:-----------------------|
G:----------7-7---2-2--5-|
D:----------8-8---3-3--5-|
A:--0---0---8-8---3-3--3-|
E:--3-5-6----------------|


   gt1
e:------5-----5---12~~~-------1----------|
B:------6--8------------------1----------|
G:-4----7-----------------2---2--5-5---4-|
D:-5----7-----------------3---3--5-5---5-|
A:-5----5-----------------3------3-3---5-|
E:-3----------------------1------------3-|
   gt2
e:----------------12~---------1----------|
B:------10----10--------------1----------|
G:-4-------12-------------2---2--5-5---4-|
D:-5----------------------3---3--5-5---5-|
A:-5----------------------3------3-3---5-|
E:-3----------------------1------------3-|


                                                        pm....
e:------------3-3-------0--1-0-----------1-1----8-------------------|
B:------------3-3---1/3---------1--1-----1-1-------5----------------|
G:------4--4--------------------------2--2-2-------0--4--------7~~~-|
D:------5--5--------------------------3--3-3----------5---8-10------|
A:---0--5--5--------------------------3---------------5-------------|
E:-3----3-----------------------------1---------------3-------------|

e:-------------------------------------------------------------|
B:-----8-------------------------------------------------------|
G:-10-------------5-----4-----10-----------5-----4-----------0-|
D:-10----10-----5---5---5-----10--10-------5-----5----0-2-3----|
A:-8----------3---------5-----8------8---3-------5-------------|
E:----------------------3------------------------3-------------|

e:---------------------------------------------------------------|
B:----------5--------1-------------------------------------------|
G:-2--2-0---5-----2----2---4------------7-7---2-2--5-------5-----|
D:-3--------5-----3--------5------------8-8---3-3--5---------5---|
A:-3--------3-----3--------5----0---0---8-8---3-3--3---3-3-----3-|
E:-1--------------1--------3----3-5-6----------------------------|

e:----------------------------------|
B:------------------------4---------|
G:----------7-7---2-2--5----5-------|
D:----------8-8---3-3--5------5-----|
A:--0---0---8-8---3-3--3--------3---|
E:--3-5-6-------------------------0-|


  solo 1
e:--------------------------------------------12-----------------------------------|
B:---------------------------------10-----10-----10-------10\8~~~~--8-10--5-6--3-5-|
G:-----------------------2-2/5~~~-----12--------------12---------------------------|
D:-----------------3-3-------------------------------------------------------------|
A:------3-3h5~~~-------------------------------------------------------------------|
E:--3-5----------------------------------------------------------------------------|

e:---------------------------------------------------------3-|
B:-1-3-1----------8-10--5-6-5-6~~~~~---2b-------2~---------3-|
G:-------2-0---------------------------4b--2-0--2~-0-------4-|
D:-----------2---------------------------------------5\0---5-|
A:---------------------------------------------------------5-|
E:-----------------------------------------------------------|


e:--------------------------------------------------------------------------|
B:-----8-----------------------------8--------------------------------------|
G:-10-------------5-----4-----10--------10----10-------5------4-----------0-|
D:-10----10-----5---5---5-----10--10-------10--------5---5----5----0-2-3----|
A:-8----------3---------5-----8--------------------3----------5-------------|
E:----------------------3-------------------------------------3-------------|

e:------------------------------------------------------------|
B:----------5--------1------------------------0-------5-5-5-5-|
G:-2--2-0---5-----2----2---4------------7-7---2-2--5--5-5-5-5-|
D:-3--------5-----3--------5------------8-8---3-3--5--5-5-5-5-|
A:-3--------3-----3--------5----0---0---8-8---3-3--3--3-3-3-3-|
E:-1--------------1--------3----3-5-6-------------------------|

e:--------------------------------|
B:------------------------5-5-5-5-|
G:----------7-7---2-2--5--5-5-5-5-|
D:----------8-8---3-3--5--5-5-5-5-|
A:--0---0---8-8---3-3--3--3-3-3-3-|
E:--3-5-6-------------------------|

  solo 2
e|----------------------------------------------------------------12~~~~~-|
B|-------------------------------------------------------10----10---------|
G|----------------------------------------------------------12------------|
D|------------------7-10-5/7\5~~~------------------7-10-------------------|
A|------3-5-5/8-10------------------------3-5/8-10------------------------|
E|--3-5-------------------------------3-5---------------------------------|




hillo son mex

22/03/11
Tap to rate this tab
 
# A B C D E F G H I J K L M N O P Q R S T U V W X Y Z