Song name
# A B C D E F G H I J K L M N O P Q R S T U V W X Y Z

Greg Graffin - One More Hill tab

One More Hill


Greg Graffin


TRANSCRIBED BY RUDY GUZMAN


guzman_84@hotmail.com




                                               
e:---------3-|
B:---------3-|
G:-------0---|
D:-----0-----|
A:---2-------|
E:-3---------|


   rich man poor man   beggar or thief no matter which one in this life you lead
e:---3-3------0-0------0-0---------3-3----3-3----3-3-----3-3----3-3-------------2-2-|
B:---3-3------1-1------1-1---------3-3----3-3----3-3-----3-3----3-3-------------3-3-|
G:---0-0------0-0------0-0---------0-0----0-0----0-0-----0-0----0-0-------------2-2-|
D:---0-0------2-2------2-2---------0-0----0-0----0-0-----0-0----0-0-----------0-----|
A:----------3--------3--------------------------------------------------------------|
E:-3-----------------------------3------3------3-------3------3---------------------|

  If you think you've reached the top of the world
e:---2-2-------2-2------2-2----------3-3----3-3------3-3-|
B:---3-3-------3-3------3-3----------3-3----3-3------3-3-|
G:---2-2-------2-2------2-2----------0-0----0-0------0-0-|
D:-0--------0---------0--------------0-0----0-0------0-0-|
A:-------------------------------------------------------|
E:--------------------------------3-------3--------3-----|

   just look all around and you'll see
e:---2-2-----2-2------2-2-------3-3-----3-3-------3-1-|
B:---3-3-----3-3------3-3-------3-3-----3-3-----0-0-0-|
G:---2-2-----2-2------2-2-------0-0-----0-0-----0-0-0-|
D:-0-------0--------0-----------0-0-----0-0---0-0-0-0-|
A:--------------------------------------------2-2-----|
E:----------------------------3-------3-------3-------|

  There's one more hill, just one more hill, there's always a hill left to climb
e:---2-3-----2-2----2-2-----------3-3----3-3-----2-2-------------2-2-----3-3-----|
B:---3-3-----3-3----3-3-----------3-3----3-3-----3-3-------------3-3-----3-3-----|
G:---2-2-----2-2----2-2-----------0-0----0-0-----2-2-------------2-2-----2-2-----|
D:-0-------0------0---------------0-0----0-0---0---------------0-------0---------|
A:------------------------------------------------------0-2----------------------|
E:-----------------------------3-------3--------------3--------------------------|


   If you think you've reached the top of the world the hill of judgment is 
e:-----------0-0----------------------3-3------3-3-----3-3-----3--3--------|
B:-----------1-1----------------------3-3------3-3-----3-3-----3--3--------|
G:-----------0-0----------------------0-0------0-0-----0-0-----0--0--------|
D:-----------2-2----------------------0-0------0-0-----0-0-----0--0--------|
A:---------3-------3--2--0-------------------------------------------------|
E:----------------------------------3--------3-------3-------3-------------|

   still left to climb
e:---2-2-----3-3-----3-3-----3-1-|
B:---3-3-----3-3-----3-3-----0-0-|
G:---2-2-----0-0-----0-0-----0-0-|
D:-0---------0-0-----0-0---0-0-0-|
A:-------------------------2-----|
E:---------3-------3-------3-----|


e:---0-0-3---0-0-----3-3-3---3-3-3---3-3-3-----------2-2-2---2-2-2---0-0-0--------|
B:---1-1-1---1-1-----3-3-3---3-3-3---3-3-3-----------3-3-3---3-3-3---1-1-1--------|
G:---0-0-0---0-0-----0-0-0---0-0-0---0-0-0-----------2-2-2---2-2-2---0-0-0--------|
D:---2-2-2---2-2-----0-0-0---0-0-0---0-0-0---------0-------0---------2-2-2--------|
A:-3-------3----------------------------------0-2------------------3--------3-2-0-|
E:-----------------3-------3-------3--------3-------------------------------------|

e:---3-3-3---3-3-3-3---3-3-3-3----3-3-3-3----2-2-2----3-3-3--3---------3-3-3-|
B:---3-3-3---3-3-3-3---3-3-3-3----3-3-3-3----3-3-3----3-3-3---3--------3-3-3-|
G:---0-0-0---0-0-0-0---0-0-0-0----0-0-0-0----2-2-2----0-0-0----0-------0-0-0-|
D:---0-0-0---0-0-0-0---0-0-0-0----0-0-0-0--0----------0-0-0-----0------0-0-0-|
A:---------------------------------------------------------------2-----------|
E:-3-------3---------3----------3-------------------3-------------3--3-------|

   There's a hill that you build every day that you live
e:------3-3-3------3-3-3-------3-3-3------3-3-3---------|
B:------3-3-3------3-3-3-------3-3-3------3-3-3---------|
G:------0-0-0------0-0-0-------0-0-0------0-0-0---------|
D:------0-0-0------0-0-0-------0-0-0------0-0-0---------|
A:------------------------------------------------------|
E:---3----------3-----------3-----------3---------------|

  the deeds that we do here below
e:---2-2-----2-2----------------3-3----3-3--|
B:---3-3-----3-3----------------3-3----3-3--|
G:---2-2-----2-2----------------0-0----0-0--|
D:-0-------0--------------------0-0----0-0--|
A:------------------------------------------|
E:---------------------------3-------3------|
  
     And tomorrow comes when we reach up above
e:------3-3--------3-3---------3-3--------3-3-----------|
B:------3-3--------3-3---------3-3--------3-3-----------|
G:------0-0--------0-0---------0-0--------0-0-----------|
D:------0-0--------0-0---------0-0--------0-0-----------|
A:------------------------------------------------------|
E:---3----------3-----------3-----------3---------------|

   you may climb that mountain and reach heaven's door
e:---2-2-----2-2------2-2-------3-3-----3-3-------3-1-|
B:---3-3-----3-3------3-3-------3-3-----3-3-----0-0-0-|
G:---2-2-----2-2------2-2-------0-0-----0-0-----0-0-0-|
D:-0-------0--------0-----------0-0-----0-0---0-0-0-0-|
A:--------------------------------------------2-2-----|
E:----------------------------3-------3-------3-------|

  There's one more hill, just one more hill, there's always a hill left to climb
e:---2-3-----2-2----2-2-----------3-3----3-3-----2-2-------------2-2-----3-3-----|
B:---3-3-----3-3----3-3-----------3-3----3-3-----3-3-------------3-3-----3-3-----|
G:---2-2-----2-2----2-2-----------0-0----0-0-----2-2-------------2-2-----2-2-----|
D:-0-------0------0---------------0-0----0-0---0---------------0-------0---------|
A:------------------------------------------------------0-2----------------------|
E:-----------------------------3-------3--------------3--------------------------|

   If you think you've reached the top of the world the hill of judgment is 
e:-----------0-0----------------------3-3------3-3-----3-3-----3--3--------|
B:-----------1-1----------------------3-3------3-3-----3-3-----3--3--------|
G:-----------0-0----------------------0-0------0-0-----0-0-----0--0--------|
D:-----------2-2----------------------0-0------0-0-----0-0-----0--0--------|
A:---------3-------3--2--0-------------------------------------------------|
E:----------------------------------3--------3-------3-------3-------------|

   still left to climb
e:---2-2-----3-3-----3-3-|
B:---3-3-----3-3-----3-3-|
G:---2-2-----0-0-----0-0-|
D:-0---------0-0-----0-0-|
A:-----------------------|
E:---------3-------3-----|

     the hill of judgment is still left to climb
e:------3-3-3------3-3-3-------2-2---------3---------|
B:------3-3-3------3-3-3-------3-3---------3---------|
G:------0-0-0------0-0-0-------2-2---------0---------|
D:------0-0-0------0-0-0-----0-------------0---------|
A:-----------------------------------------2---------|
E:---3----------3--------------------------3---------|




hillo son mex

22/03/11
Tap to rate this tab
 
# A B C D E F G H I J K L M N O P Q R S T U V W X Y Z