Song name
# A B C D E F G H I J K L M N O P Q R S T U V W X Y Z

Greg Graffin - Dont Be Afraid To Run tab

Dont Be Afraid To Run


Greg Graffin


TRANSCRIBED BY RUDY GUZMAN


guzman_84@hotmail.com




                                               
e:----0-0--------------------------------0-|
B:----0---------------1--1-1--3----------0-|
G:-0--0-----0---------0--0-0--2--0--0-0--0-|
D:-2--2-----0------0--2--2-2--0--2--2-2----|
A:-2--------0--0h2----3--3-3-----2--2-2----|
E:-0------2-3--------------------0--0-0----|

e:-------------------------------------0-|
B:------------------1--1-1--3----------0-|
G:-0------0---------0--0-0--2--0--0-0--0-|
D:-2------0------0--2--2-2--0--2--2-2----|
A:-2--0---0--0h2----3--3-3-----2--2-2----|
E:-0--0-2-3--------------------0--0-0----|


  verse
e:----0-0-------------2-2-2-2-2-----0-0-0-0-|
B:----0-0--1-1-1-1-1--3-3-3-3-3-----0-0-0-0-|
G:-0--0-0--0-0-0-0-0--2-2-2-2-2--0--0-0-0-0-|
D:-2--2-2--2-2-2-2-2--0-0-0-0-0--2--2-2-2-2-|
A:-2--2-2--3-3-3-3-3-------------2--2-2-2-2-|
E:-0--0-0------------------------0--0-0-0-0-|


   oh darling donít be afraid to run
e:-------------------------------------0-|
B:------------------1--1-1--3----------0-|
G:-0------0---------0--0-0--2--0--0-0--0-|
D:-2------0------0--2--2-2--0--2--2-2----|
A:-2--0---0--0h2----3--3-3-----2--2-2----|
E:-0--0-2-3--------------------0--0-0----|


 when we came to settle here we...
e:----0-0-------------2-2-2-2-2-----0-0-0-0-|
B:----0-0--1-1-1-1-1--3-3-3-3-3-----0-0-0-0-|
G:-0--0-0--0-0-0-0-0--2-2-2-2-2--0--0-0-0-0-|
D:-2--2-2--2-2-2-2-2--0-0-0-0-0--2--2-2-2-2-|
A:-2--2-2--3-3-3-3-3-------------2--2-2-2-2-|
E:-0--0-0------------------------0--0-0-0-0-|


   so darling donít be afraid to run
e:-------------------------------------0-|
B:------------------1--1-1--3----------0-|
G:-0------0---------0--0-0--2--0--0-0--0-|
D:-2------0------0--2--2-2--0--2--2-2----|
A:-2--0---0--0h2----3--3-3-----2--2-2----|
E:-0--0-2-3--------------------0--0-0----|

Chorus
e:-----3--3-3--------------2-2-2-2-2-----0-0-0-0-|
B:-----3--3-3--1--1-1-1-1--3-3-3-3-3-----0-0-0-0-|
G:-----0--0-0--0--0-0-0-0--2-2-2-2-2--0--0-0-0-0-|
D:-----0--0-0--2--2-2-2-2--0-0-0-0-0--2--2-2-2-2-|
A:-----2--2-2--3--3-3-3-3-------------2--2-2-2-2-|
E:-0-2-3--3-3-------------------------0--0-0-0-0-|


e:-3--3-3--------------2-2-2-2-2-----0-0-0-0-|
B:-3--3-3--1--1-1-1-1--3-3-3-3-3-----0-0-0-0-|
G:-0--0-0--0--0-0-0-0--2-2-2-2-2--0--0-0-0-0-|
D:-0--0-0--2--2-2-2-2--0-0-0-0-0--2--2-2-2-2-|
A:-2--2-2--3--3-3-3-3-------------2--2-2-2-2-|
E:-3--3-3-------------------------0--0-0-0-0-|

   so darlin donít be afraid.....    to run
e:-3--3-3-----------------2-----2-2-2-3-2-2-2-3-2-|
B:-3--3-3----1--1-1-1-1---3-----3-3-3-3-3-3-3-3-3-|
G:-0--0-0----0--0-0-0-0---2-----2-2-2-2-2-2-2-3-2-|
D:-0--0-0----2--2-2-2-2---0-----0-0-0-0-0-0-0-0-0-|
A:-2--2-2----3--3-3-3-3---------------------------|
E:-3--3-3-----------------------------------------|

  **harmonica**
e:-------------------------------------0-|
B:------------------1--1-1--3----------0-|
G:-0------0---------0--0-0--2--0--0-0--0-|
D:-2------0------0--2--2-2--0--2--2-2----|
A:-2--0---0--0h2----3--3-3-----2--2-2----|
E:-0--0-2-3--------------------0--0-0----|


  solo 1
e:-----10p7---7---------------------------------0------3/0-------------------|
B:----------8---8~~~------10p7----10-8------------3----3/0--5p3---5----------|
G:--------------7~~~--9\-------7-------9~~~-7\------0-----------4---4/-9~~~~-|
D:---------------------------------------------------------------------9~~~~-|
A:---------------------------------------------------------------------------|
E:-0-------------------------------------------------------------------------|

  under the solo *gt2*
  gt2
e:-------------------------------------0-|
B:------------------1--1-1--3----------0-|
G:-0------0---------0--0-0--2--0--0-0--0-|
D:-2------0------0--2--2-2--0--2--2-2----|
A:-2--0---0--0h2----3--3-3-----2--2-2----|
E:-0--0-2-3--------------------0--0-0----|

  gt2
e:-----------------------------0-|
B:------------------1--1-1--3--0-|
G:-0------0---------0--0-0--2--0-|
D:-2------0------0--2--2-2--0--2-|
A:-2--0---0--0h2----3--3-3-----2-|
E:-0--0-2-3--------------------0-|

  maybe we'll rendezvous out in...
 pm.................  ...........
e:---------------------------------2-2-2-2-2-----0-0-0-0-|
B:---------------------------------3-3-3-3-3-----0-0-0-0-|
G:------------------------------0--2-2-2-2-2--0--0-0-0-0-|
D:-2--2-2-----0--2-2-2-2-2--0h2----0-0-0-0-0--2--2-2-2-2-|
A:-2--2-2-0h2----3-3-3-3-3--------------------2--2-2-2-2-|
E:-0--0-0-------------------------------------0--0-0-0-0-|

e:----0-0-------------2-2-2-2-2-----0-0-0-0-|
B:----0-0--1-1-1-1-1--3-3-3-3-3-----0-0-0-0-|
G:-0--0-0--0-0-0-0-0--2-2-2-2-2--0--0-0-0-0-|
D:-2--2-2--2-2-2-2-2--0-0-0-0-0--2--2-2-2-2-|
A:-2--2-2--3-3-3-3-3-------------2--2-2-2-2-|
E:-0--0-0------------------------0--0-0-0-0-|

   oh darling donít be afraid to run
e:-------------------------------------0-|
B:------------------1--1-1--3----------0-|
G:-0------0---------0--0-0--2--0--0-0--0-|
D:-2------0------0--2--2-2--0--2--2-2----|
A:-2--0---0--0h2----3--3-3-----2--2-2----|
E:-0--0-2-3--------------------0--0-0----|


   so darling donít be afraid to run
e:-------------------------------------0-|
B:------------------1--1-1--3----------0-|
G:-0------0---------0--0-0--2--0--0-0--0-|
D:-2------0------0--2--2-2--0--2--2-2----|
A:-2--0---0--0h2----3--3-3-----2--2-2----|
E:-0--0-2-3--------------------0--0-0----|

e:-------------------------------------0-|
B:------------------1--1-1--3----------0-|
G:-0------0---------0--0-0--2--0--0-0--0-|
D:-2------0------0--2--2-2--0--2--2-2----|
A:-2--0---0--0h2----3--3-3-----2--2-2----|
E:-0--0-2-3--------------------0--0-0----|

  chrous
e:-3--3-3--------------2-2-2-2-2-----0-0-0-0-|
B:-3--3-3--1--1-1-1-1--3-3-3-3-3-----0-0-0-0-|
G:-0--0-0--0--0-0-0-0--2-2-2-2-2--0--0-0-0-0-|
D:-0--0-0--2--2-2-2-2--0-0-0-0-0--2--2-2-2-2-|
A:-2--2-2--3--3-3-3-3-------------2--2-2-2-2-|
E:-3--3-3-------------------------0--0-0-0-0-|

e:-3--3-3-----------------2-----2-3-2-3-2--0--|
B:-3--3-3----1--1-1-1-1---3-----3-3-3-3-3--0--|
G:-0--0-0----0--0-0-0-0---2-----2-2-2-2-2--0--|
D:-0--0-0----2--2-2-2-2---0-----0-0-0-0-0--2--|
A:-2--2-2----3--3-3-3-3--------------------2--|
E:-3--3-3----------------------------------0--|


  **harmonica**
e:-------------------------------------0-|
B:------------------1--1-1--3----------0-|
G:-0------0---------0--0-0--2--0--0-0--0-|
D:-2------0------0--2--2-2--0--2--2-2----|
A:-2--0---0--0h2----3--3-3-----2--2-2----|
E:-0--0-2-3--------------------0--0-0----|

  solo 2
e:-----10p7---7--------------------------------------3----------3/0-------------------|
B:----------8---10~~~---8---10p7----10-8---------------3---3-3--3/0--5p3---3-5--------|
G:-------------------------------7-------9~~~--7\--------0---0-----------4------4~~~~-|
D:------------------------------------------------------------------------------------|
A:------------------------------------------------------------------------------------|
E:-0-----------------------------------------------0----------------------------------|

e:---------------------------------------------------------------------------------|
B:----17b--15~~~-------------------------------------------------------------------|
G:----16b---------16bp14-16p14-16-16b--0---16p14----14-14--------16-16----16-16----|
D:-----------------------------------------------17-------17~~\--------17-------17-|
A:---------------------------------------------------------------------------------|
E:-0-------------------------------------------------------------------------------|

e:--------------------------------------------------------------------------|
B:--------------------------------------------------------------------------|
G:-16-16----14-16--16-16-16-16-16-16\-------------------9bf~~~~~~~~--9b-----|
D:-------17----------------------------------5---7b~~~----------------------|
A:--------------------------------------7~~~--------------------------------|
E:----------------------------------------------------------------------12\-|

e:---------------0--3p0---0-0---------|
B:----------------------3-------------|
G:----------------------------4~~~~~~-|
D:-------5---7------------------------|
A:-7~~~-------------------------------|
E:------------------------------------|

  gt2
e:-------------------------------------0-|
B:------------------1--1-1--3----------0-|
G:-0------0---------0--0-0--2--0--0-0--0-|
D:-2------0------0--2--2-2--0--2--2-2----|
A:-2--0---0--0h2----3--3-3-----2--2-2----|
E:-0--0-2-3--------------------0--0-0----|


e:-----------------------------0-|
B:------------------1--1-1--3--0-|
G:-0------0---------0--0-0--2--0-|
D:-2------0------0--2--2-2--0--2-|
A:-2--0---0--0h2----3--3-3-----2-|
E:-0--0-2-3--------------------0-|




 

hillo son mex

20/03/11
Tap to rate this tab
 
# A B C D E F G H I J K L M N O P Q R S T U V W X Y Z