Song name
# A B C D E F G H I J K L M N O P Q R S T U V W X Y Z

Greg Joy - Craigdarroch Castle tab

capo 5


|--0-5-5-8-7-5-----0------------------------------------------|
|------5-------8-7---0-1---------0-1-0-----3-0-1-0------------|
|--5---5-----------------2-2-0-2-------2-----------2----------|
|----------------------2-----------------2-----------2--------|
|--0-----------------------2---0-------------------0----------|
|------------------4-----------------------3------------------|


|------0-2-3---5-7-8-5-3---0-1-0---0--------------------------|
|--1-3-------0-5---------3-------3---3-1-3-1---0--------------|
|--------------5-------4---2-----0-----------2-0-2-0-2--------|
|--2-------2---------------------------3-------2-------2------|
|--------------0-------------------------------------0--------|
|----------------------------------------------0--------------|


|----------------------------------------0-----0-1---0-2-3----|
|----------------0-1-3-0-----0-1-3-0-1-3---1-3-------------0--|
|------------1-2-0-------2---0-------2-------2-----2-0--------|
|--3-2-0---2---2-----------2----------------------------------|
|--3-------2---0---------0-----------0-------0----------------|
|--1-----1-0-----3-----------3--------------------------------|


|--5-7-8-----------0-----0------------------------------------|
|--------5-3-0-1-3---1-----3-----------1----------------------|
|--5-------0-----------2-------0---2-4-------0-2-2-0-2--------|
|------------------3---------2---2-------2-4---0-----2--------|
|----------------------------------------------0-----0--------|
|--------------------------0-------1-----0--------------------|


|--0----------------------------------------------------------|
|----3-1-0-1---0-1-0-----0---------------3-1------------------|
|------------2-------0-2---2---------0-2-----2---------0-2----|
|----------------------------2-0---3-----------2-0-2-3--------|
|--3-------0---------------0-----3---------0-------3----------|
|------------------3---------------1--------------------------|


|-------------------------------------------------------------|
|-------------------------------------------------------------|
|--0---------------------------------------2-----------1-2----|
|----0---0-2-3-2---0-2-0---0-------------2---3-2-0---2---2----|
|------2---0-------------3---3-0-2-0---0-----------0-----0----|
|--3-------------3-------1-------3---3-------1-------0--------|

22.10.09.
Tap to rate this tab
 
# A B C D E F G H I J K L M N O P Q R S T U V W X Y Z