Song name
# A B C D E F G H I J K L M N O P Q R S T U V W X Y Z

Greg Kihn Band - Jeopardy tab

-----------------------------------------------------------------------------
                           JEOPARDY - Greg Kihn Band
-----------------------------------------------------------------------------
Tabbed by: cjog210

Tuning: Standard (EADGBe)

Part 1 (Don't hold the last note)
 e|-----------------------|
 B|o---------------------o|
 G|--------777------------|
 D|-----------------------|
 A|o---------------------o|
 E|-----------------------|x4

Part 2 (Hold the last note a little)
 e|-----------------------|
 B|o-----------6p5-------o|
 G|---7-7---5-7-----7-----|
 D|-----------------------|
 A|o---------------------o|
 E|-----------------------|x2

Part 3 (At the 3 note segments, hold the first note slightly longer than other the two notes)
 e|---------------------------------------------------|
 B|-------------6p5-10-8-6---8-6-5---6-5-5---6-5------|
 G|---7-7---5-7----------------------------------7----|
 D|---------------------------------------------------|
 A|---------------------------------------------------|
 E|---------------------------------------------------|x1

Part 4 (Hold the last note a little)
 e|----------------------|
 B|o-----------6p5------o|
 G|--7-7---5-7-----7-----|
 D|----------------------|
 A|o--------------------o|
 E|----------------------|x2

Part 5 (Hold last note)
 e|-----------------------------|
 B|-------------6p55-8~--6-8-10-|
 G|---7-7---5-7-----------------|
 D|-----------------------------|
 A|-----------------------------|
 E|-----------------------------|x1

************************************

| /   slide up
| \   slide down
| h   hammer-on
| p   pull-off
| ~   vibrato
| +   harmonic
| x   Mute note
| b   Bend
| pb  Pre-bend
| br  Bend release
| pbr Pre-bend release
| brb Bend release bend

************************************
Tap to rate this tab
# A B C D E F G H I J K L M N O P Q R S T U V W X Y Z