Song name
# A B C D E F G H I J K L M N O P Q R S T U V W X Y Z

Greg Kihn Band - Breakup Song tab

Intro/Verse

e|--------------------------------------------|
B|------------------0-1-------------5~--------|
G|-------4-5------2------------4-2--5~--------|
D|-----7--------3------------5------7~--------|
A|---7---------------------5--------7~--------|
E|-5----------1----------3----------5~--------|

Chorus

e|------------------------|
B|--1-1---5-5---3-3--6-6--|
G|--2-2---5-5---4-4--7-7--|
D|--3-3---5-5---5-5--7-7--|
A|--3-3---3-3---5-5--5-5--|
E|--1-1---------3-3-------|
Tap to rate this tab
 
# A B C D E F G H I J K L M N O P Q R S T U V W X Y Z