Song name
# A B C D E F G H I J K L M N O P Q R S T U V W X Y Z

Greg Lake - Manoeuvres tab

Greg Lake  Manoeuvres

Missing somethings but here is 

Intro
-----------------------------------------------|
-----------------------------------------------|
--------------4-4--6-6-6-----------------------|
-6-6--4-4-4---2-2--4-4-4---6-6--4-4-4----------|
-4-4--2-2-2----------------4-4--2-2-2--6--7----|
---------------------------------------4--5----|

Intro Solo
-12------------------------------|
---15-12-------------------------|
---------14-13-------------------|
--------------14-12--------------|
---------------------------------|
---------------------------------|

Verse = Intro with mute
harmonics
-7----7---|
--5--5----|
----------|
----------|
----------|
----------|

pre-choir
------|---------------------------------------------|------------|
------|---------------------------------------------|------------|
------|---------------------------------------------|------------|
------|-----4-------4-----6-------6-----------------|--4-4-4-6---|
-6-7--|-2-2-2-2-2-2-2-4-4-4-4-4-4-4-----7-------7-7-|--2-2-2-4-7-|
-4-5--|-----------------------------5-5-5-5-5-5-5-5-|----------5-|

---------------------------------------------|------------|
---------------------------------------------|------------|
---------------------------------------------|------------|
-4---4-------4-------------------------------|--4-4-4-4---|
-2---2-2-2-2-2-----4-------4-----7-------7-7-|--2-2-2-2---|
---------------2-2-2-2-2-2-2-5-5-5-5-5-5-5-5-|------------|

Choir = Intro + Intro Solo

Verse

pre-choir

Choir

Bridge
-------------------|
-------------------|
-------------------|
-------------------|
--7-7-7-7-7-7-7----|
--5-5-5-5-5-5-5----|

--------------------------------------------------------------------|
--------------------------------------------------------------------|
--------------------------------------------------------------------|
----------------------------------6-----6-6-----6-----6-6-----------|
------7-----7-7-----4-----4-4-4-4-4-4-4-4-4-4-4-4-4-4-4-4-----------|
--5-5-5-5-5-5-5-2-2-2-2-2-2-2---------------------------------------|

-------------------------------------------------------|
-------------------------------------------------------|
--------------------------------------4---------4------|
--------------------------------------2---------2------|
------7-----7-7-----4-----4-4---5-4-2---5-5-4-2--------|
--5-5-5-5-5-5-5-2-2-2-2-2-2-2--------------------------|

--------------------------------------------------------------------|
--------------------------------------------------------------------|
--------------------------------------------------------------------|
----------------------------------6-----6-6-----6-----6-6-----------|
------7-----7-7-----4-----4-4-4-4-4-4-4-4-4-4-4-4-4-4-4-4-----------|
--5-5-5-5-5-5-5-2-2-2-2-2-2-2---------------------------------------|

-------------------------------------------------------|
-------------------------------------------------------|
--------------------------------------4---------4------|
--------------------------------------2---------2------|
------7-----7-7-----4-----4-4---5-4-2---5-5-4-2--------|
--5-5-5-5-5-5-5-2-2-2-2-2-2-2--------------------------|

Solo
------------------------------------------------------|
-----9--7----7-----7-----7-9---9----------------------|
-----------9-----------------9---9---------9----------|
---9--9--9-----4-9-----9-------------4-5-7------------|
------------------------------------------------------|
------------------------------------------------------|

------------------------------------------------------|
-----9--7----7-----7-----7-9---9----------------------|
-----------9-----------------9---9-6------------------|
---9--9--9-----4-9-----9------------------------------|
------------------------------------------------------|
------------------------------------------------------|

-----------------------------------|
-----------------------------------|
-----------------------------------|
-----------------------------------|
-7-7-7-7-7-7-7-7-7-7-7-7-7-7-------|
-5-5-5-5-5-5-5-5-5-5-5-5-5-5-------|

pre-choir

Choir - Final
Tap to rate this tab
 
# A B C D E F G H I J K L M N O P Q R S T U V W X Y Z