Song name
# A B C D E F G H I J K L M N O P Q R S T U V W X Y Z

Greg Laswell - Comes And Goes In Waves tab

Play the tabbed parts along with the chords I have with
the lyrics at the bottom 
(Not by yourself, obviously. Play with a friend!),
or if you're flyin' solo,
just play the chords and sing,
it'll sound fine. Maybe switch between the two.
Yeah, that'd be nice. One of the verses,
play the tabbed part instead of the chords. 
I bet that would be real fine.

Verse:
e|--------0----|-------0----|-------1----|-------1---|
B|-----1-----1-|----1-----1-|----1-----1-|----1-----1|
G|--2----------|-2----------|-2----------|-2---------|
D|-------------|------------|------------|-----------|
A|-------------|------------|------------|-----------|
E|-------------|------------|------------|-----------|

e|--------0----|-------0----|-------5----|-------5---|
B|-----1-----1-|----1-----1-|----1-----1-|----1-----1|
G|--0----------|-0----------|-0----------|-0---------|
D|-------------|------------|------------|-----------|
A|-------------|------------|------------|-----------|
E|-------------|------------|------------|-----------|

Chorus:
e|--3--------3---|----3--------3---|----3--------3---|
B|--5-----------5|----5-----------5|----5-----------5|
G|-----5--5------|--5----5--5------|--5----5--5------|
D|---------------|-----------------|-----------------|
A|---------------|-----------------|-----------------|
E|---------------|-----------------|-----------------|

e|------------------|------------------------|
B|-----5--------5---|------------------------|
G|--5-----5--5-----5|--------7-----------7---|
D|------------------|-----5-----5-----5-----5|
A|------------------|--7-----------7---------|
E|------------------|------------------------|

e|------------------------|----------------------------|
B|------------------------|----------------------------|
G|--------9-----------9--7|--------7--5--------5--2----|
D|-----5-----5-----5------|-----5-----------5----------|
A|--7-----------7---------|--7-----------7-------------|
E|------------------------|----------------------------|


  Am                    F
     This one's for the lonely
                            C
     The ones that seek and find
                G
     Only to be let down
                Am
     Time after time
                        F
     This one's for the torn down
                        C
     The experts at the fall
                        G
     Come on friends get up now
                         Am
     You're not alone at all
           F         C         G
     Oh oh oh, oh oh oh
     Am       F         C      G
     Oh oh oh oh, oh oh oh


    F
     And this part was for her
   C/G
     This part was for her
    F
     This part was for her
   C/G
     Does she remember?
C       Am                  F
     It comes and goes in waves, i...


  Am                    F
     This one's for the faithless
                          C
     The ones that are surprised
                              G
     They are only where they are now
                         Am
     Regardless of their flight
                       F
     This one's for believing
                      C
     If only for it's sake
                         G
     Come on friends get up now
                   Am
     Love is to be made

           F         C         G
     Oh oh oh, oh oh oh
     Am       F         C      G
     Oh oh oh oh, oh oh oh



    F
     And this part was for her
   C/G
     This part was for her
    F
     This part was for her
   C/G
     Does she remember?
C       Am                  F
     It comes and goes in waves, i...
C         Am               F
     I am only let to wonder why
C       Am                  F               
     It comes and goes in waves
C         Am               F
     I am only let to wonder why
     F
     Why I try


Am                   F
     This is for the ones who stand
C                     G
     For the ones who try again
Am                    F
     For the ones who need a hand
C                     G
     For the ones who think they can


C       Am                  F
     It comes and goes in waves, i...
C         Am               F
     I am only let to wonder why
C       Am                  F               
     It comes and goes in waves
C         Am               F
     I am only let to wonder why
     F
     Why I try


Mini-Lead:
e|--12--|  |--13--|  |--12--|  |--10--|
B|------|  |------|  |------|  |------|
G|------|  |------|  |------|  |------|
D|------|x9|------|x9|------|x9|------|x9
A|------|  |------|  |------|  |------|
E|------|  |------|  |------|  |------|



Bells at the end:
e|--------------|-------------|--------------|------------|
B|--12--13--10--|--12--13--8--|--12--13--12--|--10--------|
G|--------------|-------------|--------------|------------|
D|--------------|-------------|--------------|------------|
A|--------------|-------------|--------------|------------|
E|--------------|-------------|--------------|------------|


I think that's pretty much everything. Not too difficult,
 let me know if you've got any questions or corrections
 or whatever. Have fun!


Alex C.
Tap to rate this tab
# A B C D E F G H I J K L M N O P Q R S T U V W X Y Z