Song name
# A B C D E F G H I J K L M N O P Q R S T U V W X Y Z

Greg Laswell - Not Out tab

-------------------------------------------------------------------------------
			     SONG NAME - Band Name
-------------------------------------------------------------------------------
Tabbed by: calcifer22
Email: krm07g@fsu.edu

Tuning: capo on first

e|---------------------------------------------------------------------------|
B|-----1-1-1-1-------0-0-0-0-------1-1-1-1-----------------------------------|
G|-------------------0-0-0-0-------0-0-0-0------0-0-0-0----------------------|
D|-----2-2-2-2-------0-0-0-0-------2-2-2-2------0-0-0-0----------------------|
A|--3--3-3-3-3----2--2-2-2-2----0--0-0-0-0------2-2-2-2----------------------|
E|--------------------------------------------3-3-3-3-3----------------------|

e|---------------------------------------------------------------------------|
B|----1-1-------0-------1-1--------------------------------------------------|
G|--------------0-------0-0-------0-0-0-0------------------------------------|
D|----2-2-------0-------2-2-------0-0-0-0------------------------------------|
A|--3-3-3-3---2-2-2---0-0-0-0-----2-2-2-2------------------------------------|
E|------------------------------3-3-3-3-3------------------------------------|


The rest is mostly repeating the first line, throw in the variation of the second line 
once and a while (play against song to figure it out).
The pattern takes a bit, but its the same until "And if the breeze blows me down"
but its the same basic chords and root bass.

************************************

| /   slide up
| \   slide down
| h   hammer-on
| p   pull-off
| ~   vibrato
| +   harmonic
| x   Mute note
| b   Bend
| pb  Pre-bend
| br  Bend release
| pbr Pre-bend release
| brb Bend release bend

************************************
Tap to rate this tab
 
# A B C D E F G H I J K L M N O P Q R S T U V W X Y Z