Song name
# A B C D E F G H I J K L M N O P Q R S T U V W X Y Z

Greg Laswell - Sing Theresa Says tab

watched it on youtube, listened to it extensively,
and watched some live versions of it xD
and here you go, this is pretty much it
pm me if there are any correction ;)

standard tuning

intro/verse:

|----------------------------------------------|
|-----7---7-----5---5-----2---2-----3---3------|
|-----7---7-----6---6-----2---2-----4---4------|
|----------------------------------------------|
|----------------------------------------------|
|---7---7-----5---5-----2---2-----3---3--------|


chorus:
|--------------------------                  ---|
|------10----10-10-----10--                     |
|------11----11-11-----11--                     |
|--------------------------  2x                 |
|--------------------------                     |
|---10----10--------10-----                     |
                                                |   2x
|----------------------------------------       |
|-----3--3----3--3----3--3----3--3-------       |
|-----4--4----4--4----3--3----3--3-------       |
|----------------------------------------       |
|----------------------------------------       |
|---3--3----3--3----3--3----3--3---------    ---|

|----------------------------------------|
|-----2--2----2--2----2--2----2--2-------|
|-----2--2----2--2----2--2----2--2-------|
|----------------------------------------|
|----------------------------------------|
|---2--2----2--2----2--2----2--2---------|

|----------------------------------------|
|-----1--1----1--1----5--5----5--5-------|
|-----2--2----2--2----6--6----6--6-------|
|----------------------------------------|
|----------------------------------------|
|---1--1----1--1----5--5----5--5---------|
Tap to rate this tab
 
# A B C D E F G H I J K L M N O P Q R S T U V W X Y Z