Song name
# A B C D E F G H I J K L M N O P Q R S T U V W X Y Z

Gregor Samsa - Young Old Divine Longing tab

e|-------------------------------------|
a|-------------------------------------|
d|-------------------------------------|
g|---------7-7-7-7-7-0-0-7-7-----7-5---|
b|-------3-------------------3-3-------|
e|---1-1-------------------------------|

e|-------------------------------------|
a|-------------------------------------|
d|-------------------------------------|
g|---------7-7-7-7-7-0-0-7-7-----10-5--|
b|-------3-------------------3-3-------|
e|---1-1-------------------------------|

very beautiful song.
Tap to rate this tab
 
# A B C D E F G H I J K L M N O P Q R S T U V W X Y Z