Song name
# A B C D E F G H I J K L M N O P Q R S T U V W X Y Z

Gregory Alan Isakov - Dandelion Wine chords

Highlighted       Show chord diagrams
-------------------------------------------------------------------------------
			     DANDELION WINE – Gregory Alan Isakov
-------------------------------------------------------------------------------
Tabbed by: gimmerain4days

Tuning: Standard

Intro.
    Am                  Fmaj9                 G             Fmaj9            
e|----0--0--3--0-0---------0-0----0-0--0--------3-3--0--------0-0---0-0------| 
B|----1--1--1------3-1-----1-1----1-1----3-1----3-3----3-1----1-1---1-1------|
G|----2--2--2--------------2-2----2-2-----------0-0-----------2-2---2-2------|
D|----2--2--2-----------3--3-3--3-3-3-----------------------3-3-3-3-3-3------|
A|--0-0--0--0----------------------------------------------------------------|
E|--------------------------------------------3------------------------------| x2

Verse.
C  Am                      Fmaj9          
   Summer days were just a magazine
  G           Fmaj9           
a magazine, a magazine…
Am                Fmaj9                 
cutting grass for gasoline, 
    G           Fmaj9           C
for gasoline so I can see ya soon…

Chorus.
C         Fmaj9
Fall swooned
                   Am
left me drunk in a field
G     C              F    C
dandelion wine for a year
      Fmaj9
and I packed up the dust
              Am
of all that I owned
G            C
handkerchief hung from a pole
Fmaj9                                  C
I rolled out the day that the apples fell…

Instrumental/Outro.
E  Am  F  C x4
E  C        
Intro x1
Tap to rate this tab
# A B C D E F G H I J K L M N O P Q R S T U V W X Y Z