Song name
# A B C D E F G H I J K L M N O P Q R S T U V W X Y Z

Gregory Alan Isakov - Words tab

-------------------------------------------------------------------------------
                             Words - Gregory Alan Isakov
-------------------------------------------------------------------------------
Tabbed by: Robert
Email: robpants@gmail.com

Tuning: Standard
Capo: 1st Fret

Chords F1 - F2  - C  - G
e---------------------------|
B-------1----1----1---------|
G-------2----1--------------|
D-------3----3----2---------|
A-------3----3----3----2----|
E-----------------3----3----|

Pattern throughout whole song basically the same
F1 F2 C G
    or
F1 F2 C C


listen to the song for timing and variations


************************************

| /   slide up
| \   slide down
| h   hammer-on
| p   pull-off
| ~   vibrato
| +   harmonic
| x   Mute note
| b   Bend
| pb  Pre-bend
| br  Bend release
| pbr Pre-bend release
| brb Bend release bend

************************************
Tap to rate this tab
 
# A B C D E F G H I J K L M N O P Q R S T U V W X Y Z