Song name
# A B C D E F G H I J K L M N O P Q R S T U V W X Y Z

Gregory Alan Isakov - Big Black Car tab

-- Big Black Car by Gregory Alan Isakov -- 

Tuning: Standard w/capo on 3rd fret
Tabbed by: Simply G.C.
September 25, 2012
    
  -- This is just the intro -- capo 3rd

Intro:
e|----------------------------------0--|
B|------1-----1---1-----1---1---1---1--|
G|----0-----0---0----0h2-0h2-0h2-0h2---|
D|-------------------------------------|
A|--0----------------------------------|
E|--------3----------1-----------------|

e|------0-----0---0------0------0---0--|
B|------1-----1---1------1------1---1--|
G|----0-----0---0------0---0-----------|
D|-------------------------------------|
A|--0-------------------------3---2----|
E|--------3----------1-----------------|


Verse:
you were a phonograph, i was a kid
i sat with an ear close, just listening
i was there when the rain tapped her way down your face
you were a miracle i was just holdin your space
Tap to rate this tab
 
# A B C D E F G H I J K L M N O P Q R S T U V W X Y Z